Song name
# A B C D E F G H I J K L M N O P Q R S T U V W X Y Z

Say Anything - Surgically Removing The Tracking Device tab

e---------------------------------------------------------------------------|
B----------------------------10---------------------------------------------|
G---------------------------------------------------------------------------|
D-10-----10-10-10-10-10-----------------7--7--7--7--9-----------------------|
A-------------------------9----------------------------9\-----7-----7--9----|
E----------------------------------------------------------------9--------9-|

e-----------------------------------------------------|
B-----------------------------------------------------|
G----------------------------------------------11-----|
D---------------------------12--11--------------------|
A-11-----11--12-----12--14----------12--14\-----------|
E-----9----------9------------------------------------|

e---------------------------------------------------------------------------|
B----------------------------10---------------------------------------------|
G---------------------------------------------------------------------------|
D-10-----10-10-10-10-10-----------------7--7--7--7--9-----------------------|
A-------------------------9----------------------------9\-----7-----7--9----|
E----------------------------------------------------------------9--------9-|

e-------------------------------------------------------------------|
B-------------------------------------------------------------------|
G----------------------------------------------11-----11-----11-----|
D---------------------------12--11-------------10-----10-----11-----|
A-11-----11--12-----12--14----------12--14\-------------------------|
E-----9----------9--------------------------------------------------|
Tap to rate this tab
 
# A B C D E F G H I J K L M N O P Q R S T U V W X Y Z