Say Anything - Woe tab

Song: Woe
Band: Say Anything
tabbed by hipeople1

now here we go:


bass intro:
e|---------------------------------------------------------------------------|
B|---------------------------------------------------------------------------|
G|---------------------------------------------------------------------------|
D|--------5---7--------------------------------------------------------------|
A|-5---7---------------------------------------------------------------------|
E|---------------------------------------------------------------------------|

all the words, in my mouth...
e|---------3---------0-------------------2-2-2-2-2-2-----------------------------|
B|---------3---------0-----------1-------3-3-3-3-3-3-----------------------------|
G|---------0---------0---------2-2-------2-2-2-2-2-2-----------------------------|
D|-----0---0-(x4)-2--2-(x4)----2-2-(x4)------------------------------------------|
A|-----2---2------2--2---------0-0-----------------------------------------------|
E|-----3---3------0--0-----------------------------------------------------------|

woe...
e|---------------------------------------------------------------------------|
B|---------------------------------------------------------------------------|
G|----5-4-5-5----------------------------------------------------------------|
D|-------------4-5-7-5-------------------------------------------------------| (x2)
A|-----0-0-0-0--5-5-5-5------------------------------------------------------|
E|---------------------------------------------------------------------------|


and this girl who i met...
e|---------3---------0-------------------2-2-2-2-2-2-----------------------------|
B|---------3---------0-----------1-------3-3-3-3-3-3-----------------------------|
G|---------0---------0---------2-2-------2-2-2-2-2-2-----------------------------|
D|-----0---0-(x4)-2--2-(x4)----2-2-(x4)------------------------------------------|
A|-----2---2------2--2---------0-0-----------------------------------------------|
E|-----3---3------0--0-----------------------------------------------------------|

I cant get laid in this town...
G
Em
C
D

Continue for the rest of the song.


************************************

| /   slide up
| \   slide down
| h   hammer-on
| p   pull-off
| ~   vibrato
| +   harmonic
| x   Mute note
| b   Bend
| pb  Pre-bend
| br  Bend release
| pbr Pre-bend release
| brb Bend release bend

************************************
Tap to rate this tab
 
# A B C D E F G H I J K L M N O P Q R S T U V W X Y Z