Say Anything - Shameless tab

-------------------------------------------------------------------------------
			     SHAMELESS - Say Anything
-------------------------------------------------------------------------------
Tabbed by: cakreut12


Tuning: STANDARD EADgbe

Intro:
                     DDUD                     DUDUD
e|---------------------------------------------------------------------------|
B|-----------7--8-------------------7--7/12--7--------------7--8-7--------8--|
G|-----7--9--------9--9-------7--9--------------------7--9---------9-7-9~----|
D|--------------------9-------------------------9----------------------------|
A|--------------------7-------------------------9----------------------------|
E|----------------------------------------------7----------------------------|
                                   Verse:                             
e|----------------|-------------------------------------------------------|--|
B|---7------------|-------------------------------------------------------|--|
G|-----9-7-7~-----|----7-------------7/9--7----------------7--------------|--|
D|----------------|----7--------7----7/9--7----7/9--7------7-----7-----5--|--|
A|----------------|----5--------7----5/7--5----7/9--7------5-----7-----5--|--|
E|----------------|-------------5--------------5/7--5------------5-----3--|--|


   Pre-Chorus:                     Chorus 2x:
e|--------------------------|-------------------|
B|--------------------------|-------------------|
G|---------7--6/7-----------|--7----------------|
D|-----7---7--6/7-----5--7--|--7--7--5--7--5----|
A|-----7---5--4/5-----5--7--|--5--7--5--7--5----|
E|-----5--------------3--5--|-----5--3--5--3----|



************************************

| /   slide up
| \   slide down
| h   hammer-on
| p   pull-off
| ~   vibrato
| +   harmonic
| x   Mute note
| b   Bend
| pb  Pre-bend
| br  Bend release
| pbr Pre-bend release
| brb Bend release bend
Tap to rate this tab
 
# A B C D E F G H I J K L M N O P Q R S T U V W X Y Z