Song name
# A B C D E F G H I J K L M N O P Q R S T U V W X Y Z

Say Anything - People Like You Are Why People Like Me Exist tab

People Like You Are Why People Like Me Exist by Say Anything
billythekiddd6@yahoo.com

Drop D tuning!

INTRO:

Guitar 1-
--------------------------------------------------------------------------|
-101010-121212-121212-121212-101010-121212-191919191919-1515151515151515--|
--------------------------------------------------------------------------|
--------------------------------------------------------------------------|
--------------------------------------------------------------------------|
--------------------------------------------------------------------------|

---------------------------------------------------------------------------|
-101010-121212-121212-121212-101010-121212-191919191919-1515151515151515~~-|
---------------------------------------------------------------------------|
---------------------------------------------------------------------------|
---------------------------------------------------------------------------|
---------------------------------------------------------------------------|

Guitar 2-
-----------------------------------------------------------------------------|
-----------------------------------------------------------------------------|
---------------------------------777----------------------------------7777~~-|
-x4x-555-555-555-444-555-555-555-777-444-555-555-555-444-555-555-555--xxxx~~-|
-x4x-555-555-555-444-555-555-555-555-444-555-555-555-444-555-555-555--5555~~-|
-x4x-555-555-555-444-555-555-555-----444-555-555-555-444-555-555-555---------|


VERSE:

Guitar 1-
-------------------------------------------------------------------------|
-8/10h12~--8/10h12~------------------------------------------------------|
--------------------999-99-9999-99-9999999-------------------------------|
--------------------xxx-xx-xxxx-xx-xxxxxxx-------------------------------|
--------------------777-77-7777-77-7777777-------------------------------|
-------------------------------------------------------------------------|(x2)


Guitar 2-
---------------XXX------------------------------------------------------|
---------------XXX------------------------------------------------------|
---------------XXX--999-99-9999-99-9999999------------------------------|
---------------XXX--xxx-xx-xxxx-xx-xxxxxxx------------------------------|
---------------XXX--777-77-7777-77-7777777------------------------------|
---------------XXX------------------------------------------------------| (x2)



CHORUS:

Guitars 1 & 2-
--------------------------------------------------------------------------|
--------------------------------------------------------------------------|
-77776666/7777/6666/7777/6666/7777/6666--999999999999999999999999999999---|
--------------------------------------------------------------------------|
-5555555555555555555555555555555555555--777777777777777777777777777777----|
-5555555555555555555555555555555555555--777777777777777777777777777777----| (x2)



BRIDGE:

Guitar 1- Do this between the ridiculous parts, sorry wasn't able to figure those out 
too much effect, if anyone has though I'd love to see it
---------------------------------------------------|
---------------------------------------------------|
--777-777-666-666-777-777-999-999------------------|
---------------------------------------------------|
---------------------------------------------------|
---------------------------------------------------| (x2)

Heavy part: "A person's not more than a thing..."


Guitars 1 & 2-
-----------------------------|----------------XXX--14~-----------|
-----------------------------|----------------XXX----------------|
-----------------------------|----------------XXX----------------|
-0-0-3p0-0-0-12-12-12p10p0---|-0-0-3p0-0-0-12-XXX----------------|
-0-0-3p0-0-0-12-12-12p10p0---|-0-0-3p0-0-0-12-XXX----------------|
-0-0-3p0-0-0-12-12-12p10p0---|-0-0-3p0-0-0-12-XXX----------------|
This part a bunch of times with the next part once in the middle.


Then the intro again with a repeated ending, then the chorus (drums and bass get 
stripped but same guitar), and you're done!
Tap to rate this tab
 
# A B C D E F G H I J K L M N O P Q R S T U V W X Y Z