Say Anything - Crushd tab

Tuning  D#,G#,D#,G#,A#,D#


Intro/Verse

D#|-----------------------------|
A#|-----------------------------|
G#|-----------------------------| on the chords with 7,9,7 use you first fing on top 7, 2 on 
D#|-9--9---7-7--7-7--5-5-4-4----|   the bottom and third on the nine
G#|-14-14--7-7--9-9--4-4-4-4----|
D#|-9--9---5-5--7-7--2-2-2-2----|

Pre-chorus

D#|---------------------------------|
A#|---------------------------------|
G#|---------------------------------|           Try and keeps these notes staccato 
D#|-7-7-7-7-7-7-7-7-5-5-5-5-4-4-7-7-|
G#|-7-7-7-7-9-9-9-9-4-4-4-4-4-4-9-9-|
D#|-5-5-5-5-7-7-7-7-2-2-2-2-2-2-7-7-| x 3



D#|-----------------0-0-0-0-|
A#|-----------------0-0-0-0-|
G#|-----------------0-0-0-0-|  f = make these notes flow in complete contrast to  
D#|-7-7-7-7-7-7-7-7-7-7-7-7-|           the section before
G#|-7-7-7-7-9-9-9-9-9-9-9-9-|
D#|-5-5-5-5-7-7-7-7-7-7-7-7-|
                                               f   f   f   f


Chorus


D#|-0-0-0-0-0-0-0-0-0-0-0-0-0-0-0-0------|
A#|-0-0-0-0-0-0-0-0-0-0-0-0-0-0-0-0------|       (On first two chords, use your first, 
G#|-0-0-0-0-0-0-0-0-0-0-0-0-0-0-0-0------|       second and little finger but don't use 
D#|-5-5-5-4-4-4-4-4-7-7-7-7-7-7-7-7------|       a barre chord so that the lower strings
G#|-4-4-4-4-4-4-4-4-7-7-7-9-9-9-9-9------|      ring out and get the best sound)
D#|-2-2-2-2-2-2-2-2-5-5-5-7-7-7-7-7------|  x4


Verse
D#|-----------------------------|
A#|-----------------------------|
G#|-----------------------------|
D#|-9--9---7-7--7-7--5-5-4-4----|
G#|-14-14--7-7--9-9--4-4-4-4----|
D#|-9--9---5-5--7-7--2-2-2-2----|
 
D#|-0-----0----0---------------|
A#|-0-----0----0---------------|
G#|-0-----0----0---------------|
D#|-9-----7----7----5-5-4-4----|
G#|-14-x6-7-x6-9-x6-4-4-4-4----|
D#|-9-----5----7----2-2-2-2----|
 

Pre-chorus

D#|---------------------------------|
A#|---------------------------------|
G#|---------------------------------|           Try and keeps these notes staccato also.
D#|-7-7-7-7-7-7-7-7-5-5-5-5-4-4-7-7-|
G#|-7-7-7-7-9-9-9-9-4-4-4-4-4-4-9-9-|
D#|-5-5-5-5-7-7-7-7-2-2-2-2-2-2-7-7-| x 3



D#|-----------------0-0-0-0-|
A#|-----------------0-0-0-0-|
G#|-----------------0-0-0-0-|  f = make these notes flow in complete contrast to  
D#|-7-7-7-7-7-7-7-7-7-7-7-7-|           the section before
G#|-7-7-7-7-9-9-9-9-9-9-9-9-|
D#|-5-5-5-5-7-7-7-7-7-7-7-7-|
      
                                         f   f   f   f
Chorus


D#|-0-0-0-0-0-0-0-0-0-0-0-0-0-0-0-0------|
A#|-0-0-0-0-0-0-0-0-0-0-0-0-0-0-0-0------|
G#|-0-0-0-0-0-0-0-0-0-0-0-0-0-0-0-0------|
D#|-5-5-5-4-4-4-4-4-7-7-7-7-7-7-7-7------|
G#|-4-4-4-4-4-4-4-4-7-7-7-9-9-9-9-9------|
D#|-2-2-2-2-2-2-2-2-5-5-5-7-7-7-7-7------|    x4


Bridge

D#|------------------------------|
A#|------------------------------|
G#|------------------------------|
D#|------------------------------|
G#|------------------------------|
D#|-9-9-9-9-9-9-9-9-4-4-4-4-7----|


D#|-0----0----0----0--0------------|
A#|-0----0----0----0--0------------|
G#|-0----0----0----0--0------------| 
D#|-7----7----7----9--7------------|
G#|-5-x2-7-x6-5-x2-9--7-x5---------|
D#|-5----7----5----9--7------------|

D#|--------------------------------|
A#|--------------------------------|
G#|--------------------------------|
D#|-9-9-9-9-9-9-9-9-7-7-7-7-7-7-7-7|
G#|-9-9-9-9-9-9-9-9-7-7-7-7-9-9-9-9|
D#|-9-9-9-9-9-9-9-9-4-4-4-4-7-7-7-7|


D#|-0----0----0----0--0------------|
A#|-0----0----0----0--0------------|
G#|-0----0----0----0--0------------| 
D#|-7----7----7----9--7------------|
G#|-5-x2-7-x6-5-x2-9--7-x5---------|
D#|-5----7----5----9--7------------|

Instrumental And Chorus

D#|-0-0-0-0-0-0-0-0-0-0-0-0-0-0-0-0------|
A#|-0-0-0-0-0-0-0-0-0-0-0-0-0-0-0-0------|
G#|-0-0-0-0-0-0-0-0-0-0-0-0-0-0-0-0------|
D#|-5-5-5-4-4-4-4-4-7-7-7-7-7-7-7-7------|
G#|-4-4-4-4-4-4-4-4-7-7-7-9-9-9-9-9------|
D#|-2-2-2-2-2-2-2-2-5-5-5-7-7-7-7-7------|  x6

Max uses muted strings to end the song (singing, "Did it hurt, did it hurt..." etc) Its 
an easy rhythm - just have a listen!

| /  slide up
| \  slide down
| h  hammer-on
| p  pull-off
| ~  vibrato
| +  harmonic
| x  Mute note
Tap to rate this tab
 
# A B C D E F G H I J K L M N O P Q R S T U V W X Y Z