Say Anything - She Wont Follow You tab

-------------------------------------------------------------------------------
                       SHE WON'T FOLLOW YOU: Say Anything
-------------------------------------------------------------------------------
Tabbed by: TheThirdDay
Email: TheThirdDaySH@gmail.com

This tab is of the album version, which is in Drop C# (Db) tuning. The secret 

origins version has the same verse and chorus chords, but it's played
from Drop D.

For the most up to date Say Anything tabs, go to playsa.net.

---

INTRO:
    E E E E E E E E   E E E E E E E E
D#|-2-0-0-0-2-0-0-0-|-2-3-3-2-2-0-0-0-|
A#|-3-3-3-3-3-3-3-3-|-3-3-3-3-3-3-3-3-|
F#|-----------------|-----------------|
C#|-----------------|-----------------|
G#|-----------------|-----------------|
C#|-----------------|-----------------| x3     (Since all the Rhythm Guitar
                                                does is play a C# (xxx000),
    E E E E E E E E   E E E E E E E E           it can easily be played on
D#|-2-0-0-0-2-0-0-0-|-2-3-3-2-2-------|         the low strings while you
A#|-3-3-3-3-3-3-3-3-|-3-3-3-3-3-5-5\3-|         play the lead part on the
F#|-----------------|-----------------|         high strings, if you're
C#|-----------------|-----------------|         so inclined.)
G#|-----------------|-----------------|
C#|-----------------|-----------------|



VERSE:
    Q Q Q E E   +E  E E Q E E E   Q Q Q E E   +E  E E Q E E E
D#|-----------|-----------------|-----------|-----------------|
A#|-----------|-----------------|-----------|-----------------|
F#|-6-6-6-6-7-|-(7)-7-7-7-7-7-6-|-6-6-6-6-2-|-(2)-2-2-2-2-2---|
C#|-0-0-0-0-0-|-(0)-0-0-0-0-0-x-|-x-x-x-x-0-|-(0)-0-0-0-0-0-0-|
G#|-x-x-x-x-x-|-----x-x-x-x-x-4-|-4-4-4-4-0-|-(0)-0-0-0-0-0-0-|
C#|-5-5-5-5-5-|-(5)-5-5-5-5-5-0-|-0-0-0-0-0-|-(0)-0-0-0-0-0-0-|

    Q Q Q E E   +E  E E Q Q E   E E Q  E E Q    E E E E E E E E
D#|-----------|---------------|---------------|------------------|
A#|-----------|---------------|-----10-----10-|-----8-8-8---7----|
F#|-6-6-6-6-7-|-(7)-7-7-6-4---|-----9------9--|-----9-9-9---9----|
C#|-0-0-0-0-0-|-(0)-0-0-0-0---|-----0------0--|-----0-0-0---0----|
G#|-x-x-x-x-x-|-----x-x-x-x---|-0-0----0-0----|-0-0--------------|
C#|-5-5-5-5-5-|-(5)-5-5-5-5---|-0-0----0-0----|-0-0--------------|
pm                              . .    . .      . .
                                                E E E E Q Q
                                            D#|-----------------|
                                            A#|-----8-8-8-10----|
                                            F#|-----9-9-9-9-----|
                                            C#|-----0-0-0-0-----|
                                            G#|-0-0-------------| Verse 1
                                            C#|-0-0-------------| ending
                                            pm  . .
                                                E E E E E E E E
                                            D#|-----------------|
   (For the first half of verse two, Max    A#|-----7-8-7-8-7-8-|
    just plays the high note of the chords  F#|-----9-9-9-9-9-9-|
    in a higher octave. He plays the full   C#|-----------------|
    chords for the second repitition.)      G#|-0-0-------------| Verse 2
                                            C#|-0-0-------------| ending
                                            pm  . .



CHORUS:
    Q  E E Q E E   E E E E E E E E   Q E E  Q  E E   E E E E E E E E
D#|--------------|-----------------|---------------|-----------------|
A#|--------------|-----------------|---------------|-----------------|
F#|-11-x-6-6-x-7-|---7---9-9-9-9-7-|-7-x-11-11-x-9-|---9---9---9-9-9-|
C#|-x--x-x-x-x-x-|---x---x-x-x-x-x-|-x-x-x--x--x-x-|---x---x---x-x-x-|
G#|-9--x-4-4-x-5-|---5---7-7-7-7-5-|-5-x-9--9--x-7-|---7---7---7-7-7-|
C#|-9--x-4-4-x-5-|---5---7-7-7-7-5-|-5-x-9--9--x-7-|---7---7---7-7-7-|

    Q  E E Q E E   E E E E E E E E   Q E E Q E E   E E E E E E E E
D#|--------------|-----------------|-------------|-----------------|
A#|--------------|-----------------|-------------|-----------------|
F#|-11-x-6-6-x-7-|---7---9-9-9-9-7-|-7-x-2-2-x-9-|-9-9-9-9-9-9-9-9-|
C#|-x--x-x-x-x-x-|---x---x-x-x-x-x-|-x-x-0-0-x-x-|-x-x-x-x-x-x-x-x-|
G#|-9--x-4-4-x-5-|---5---7-7-7-7-5-|-5-x-0-0-x-7-|-7-7-7-7-7-7-7-7-|
C#|-9--x-4-4-x-5-|---5---7-7-7-7-5-|-5-x-0-0-x-7-|-7-7-7-7-7-7-7-7-|



SOLO:
    E E E E E E E E   E E E E E E E E   Q   Q   Q   Q
D#|-2-0-0-0-2-0-0-0-|-2-3-3-2-2-0-0-0-|----/10-/14-/17-|
A#|-3-3-3-3-3-3-3-3-|-3-3-3-3-3-3-3-3-|----------------|
F#|-----------------|-----------------|----------------|
C#|-----------------|-----------------|----------------|
G#|-----------------|-----------------|-5\-------------|
C#|-----------------|-----------------|----------------|

    +E    Q S S S S S S S S S S   W    E E E E S E. E   S S E E E S S E E E
D#|-(17)\-?---------------------|----|--------------5-|-5h7p5---------------|
A#|-----------------------------|----|---------5/7--7-|-------7-5-5/7\5-----|
F#|---------------------------0-|-h2-|-7-4-7-4--------|-----------------7-4-|
C#|---------5p4-----0h2h4p2h4---|----|----------------|---------------------|
G#|-------------5p4-------------|----|----------------|---------------------|
C#|-----------------------------|----|----------------|---------------------|

    Q Q H   E E E E E E E E   W     E E E E E E E E 
D#|-------|-----------------|-----|---------3---2---|-2-3-3-2-2-------|
A#|-7-4-7-|---------7---8---|-10\-|-3---2-----------|-3-3-3-3-3-5-5\3-|
F#|-------|-7---9-----------|-----|-----------------|-----------------|
C#|-------|---7---7---7---7-|-----|-----------------|-----------------|
G#|-------|-----------------|-----|-----------------|-----------------|
C#|-------|-----------------|-----|-----------------|-----------------|



POST-CHORUS (She won't follow you...):
    E  E  E  E  E E E E   E E E E E E E E
D#|---------------------|-----------------|
A#|---------------------|-----------------|
F#|-11-11-11-11-6-6-6-6-|-7-7-7-7-9-9-9-9-|
C#|-x--x--x--x--x-x-x-x-|-x-x-x-x-x-x-x-x-|
G#|-9--9--9--9--4-4-4-4-|-5-5-5-5-7-7-7-7-|
C#|-9--9--9--9--4-4-4-4-|-5-5-5-5-7-7-7-7-|

    E E E E E  E  E  E    E E E E E E E E
D#|---------------------|-----------------|
A#|---------------------|-----------------|
F#|-7-7-7-7-11-11-11-11-|-9-9-9-9-9-9-9-9-|
C#|-x-x-x-x-x--x--x--x--|-x-x-x-x-x-x-x-x-|
G#|-5-5-5-5-9--9--9--9--|-7-7-7-7-7-7-7-7-|
C#|-5-5-5-5-9--9--9--9--|-7-7-7-7-7-7-7-7-|



OUTRO:
    E E E E E E E S S   S S S S S S  E    +W
D#|-------------------|--------------10-|-(10)\-|
A#|-------------------|---------7h10----|-------|
F#|-------------------|-----7h9---------|-------|
C#|-------------------|-7h9-------------|-------|
G#|---------------7h9-|-----------------|-------|
C#|-9-7-9---9-7-9-----|-----------------|-------|



Legend:
   W: Whole Note
   H: Half Note
   Q: Quarter Note
   E: Eighth Note
   S: Sixteenth Note
  x.: Note is dotted (Equal to 1.5x the note's normal duration)
  +x: Note is tied to the previous note
   /: Slide up
   \: Slide down

    A note with no number underneath denounces a rest
Tap to rate this tab
 
# A B C D E F G H I J K L M N O P Q R S T U V W X Y Z