Song name
# A B C D E F G H I J K L M N O P Q R S T U V W X Y Z

Say Anything - A Walk Through Hell tab

Tabbed from this video------> http://www.youtube.com/watch?v=CIovQdEjJH0
refer to there for rythem







Intro
e|--------------------------------------------------------------------------|
B|--------------------------------------------------------------------------|
G|-----6--6-------6--6-----6--6-----6--6-----4--4----4--4-----7--7---------7|
D|-----7--7-------7--7-----7--7-----7--7-----6--6----6--6-----7--7-----7h9--|
A|---------------------9-9------9-9------7-7------7-7-----5-5------5-5------|
E|-5-5---------5-5----------------------------------------------------------|

e|--------------------------------------------------------------------------|
B|--------------------------------------------------------------------------|
G|-----6--6-------6--6-----6--6-----6--6-----4--4----4--4-----7--7------7~--|
D|-----7--7-------7--7-----7--7-----7--7-----6--6----6--6-----7--7------7~--|
A|---------------------9-9------9-9------7-7------7-7-----5-5------5-5------|
E|-5-5---------5-5----------------------------------------------------------|


Verse
e|-----------------------------------------|
B|-----------------------------------------|
G|-----2---2-----2---2-----2---2--------2h4|
D|-------2---------2---------2-------2h4---|
A|-5-5-------4-4-------2-2-------0-0-------|
E|-----------------------------------------|2x

Bridge
e|-----------------------------------------|
B|-----------------------------------------|
G|-----2---2-----2---2--------2~--------2~-|
D|-------2---------2----------2~--------2~-|
A|-5-5-------4-4-------2-2--------2-2------|
E|-----------------------------------------|

Pre-Verse
e|--------------------------------------------------------------------------|
B|--------------------------------------------------------------------------|
G|-----6--6-------6--6-----6--6-----6--6-----4--4----4--4-----7--7---------7|
D|-----7--7-------7--7-----7--7-----7--7-----6--6----6--6-----7--7-----7h9--|
A|---------------------9-9------9-9------7-7------7-7-----5-5------5-5------|
E|-5-5---------5-5----------------------------------------------------------|

e|--------------------------------------------------------------------------|
B|--------------------------------------------------------------------------|
G|-----6--6-------6--6-----6--6-----6--6-----4--4----4--4-----7--7------7~--|
D|-----7--7-------7--7-----7--7-----7--7-----6--6----6--6-----7--7------7~--|
A|---------------------9-9------9-9------7-7------7-7-----5-5------5-5------|
E|-5-5---------5-5----------------------------------------------------------|



Verse
e|-----------------------------------------|
B|-----------------------------------------|
G|-----2---2-----2---2-----2---2--------2h4|
D|-------2---------2---------2-------2h4---|
A|-5-5-------4-4-------2-2-------0-0-------|
E|-----------------------------------------|2x

Bridge
e|---------------------------------------|
B|---------------------------------------|
G|-----2---2-----2---2--------2~-------2~|
D|-------2---------2----------2~------2--|
A|-5-5-------4-4-------2-2-----------2---|
E|---------------------------------------|


Chorus
(Only first time)
e|-(XXX)|-------------------------------------------------------------|
B|-(XXX)|-------------------------------------------------------------|
G|-(XXX)|-------------------------------------------------------------|
D|-(XXX)|--5-5---4-4-2---2222222222222---55-XXX-44-XX2-2222222222222--|
A|-(XXX)|--5-5---4-4-2---2222222222222---55-XXX-44-XX2-2222222222222--|
E|-(XXX)|--7-7---2-2-0---0000000000000---77-XXX-22-XX0-0000000000000--|2x

Mini Solo
e|-----------------------|
B|-2h3h5-----------------|
G|-------4h6p4h6/2------ |
D|-------------------4-2-|
A|-----------------------|
E|-----------------------|2x


Verse
e|-----------------------------------------|
B|-----------------------------------------|
G|-----2---2-----2---2-----2---2--------2h4|
D|-------2---------2---------2-------2h4---|
A|-5-5-------4-4-------2-2-------0-0-------|
E|-----------------------------------------|2x

Bridge
e|-----------------------------------------|
B|-----------------------------------------|
G|-----2---2-----2---2--------2~--------2~-|
D|-------2---------2----------2~--------2~-|
A|-5-5-------4-4-------2-2--------2-2------|
E|-----------------------------------------|


Chorus
(Only first time)
e|-(XXX)|-------------------------------------------------------------|
B|-(XXX)|-------------------------------------------------------------|
G|-(XXX)|-------------------------------------------------------------|
D|-(XXX)|--5-5---4-4-2---2222222222222---55-XXX-44-XX2-2222222222222--|
A|-(XXX)|--5-5---4-4-2---2222222222222---55-XXX-44-XX2-2222222222222--|
E|-(XXX)|--7-7---2-2-0---0000000000000---77-XXX-22-XX0-0000000000000--|3x




Outro
e|----------------------------------------------|
B|----------------------------------------------|
G|----------------------------------------------|
D|--55-XXX-44-XX2-2222222222222-55-XXX-44-XX2--|
A|--55-XXX-44-XX2-2222222222222-55-XXX-44-XX2--|
E|--77-XXX-22-XX0-0000000000000-77-XXX-44-XX0--|

e|-----------------------------------------|
B|-----------------------------------------|
G|-----2---2-----2---2-----2---2--------2h4|
D|-------2---------2---------2-------2h4---|
A|-5-5-------4-4-------2-2-------0-0-------|
E|-----------------------------------------|3x

e|-------------------------------|
B|-------------------------------|
G|-----2---2-----2---2--------2~-|
D|-------2---------2----------2~-|
A|-5-5-------4-4-------2-2-------|
E|-------------------------------|
Tap to rate this tab
 
# A B C D E F G H I J K L M N O P Q R S T U V W X Y Z