Say Anything - Woe Acoustic tab

This is absolutely the way max bemis plays it. Most of the o ther tabs are cloes but the
chords are wrong, he has a very unique style in the way he plays his chords. You can
use these chords to figure out most of the other songs he plays.This is my first tab 
though so sorry if the structure is off.  Rhythm isnt hard to figure out.
Intro-
e---------------------------------------------------------------------------|
a-----5---------------------------------------------------------------------|
d-----5---------------------------------------------------------------------|
g-----7---------------------------------------------------------------------|
b-----7---------------------------------------------------------------------|
e---------------------------------------------------------------------------|
Verse-all the words in my mouth
e--3------------------------------5-5--5-5--x2---------x---------------------|
a----5----------7-----------------x-x--x-x-------------5---------------------|
d----5-------------5--------------5-5--5-5-------------4---------------------|
g----4-------------x--------------5-5--4-4-------------5---------------------|
b------------------7--------------x-x--x-x-------------x---------------------|
e---------------------------------x-x--x-x-------------x---------------------|

Chorus- we live with woe..
e----------------------------------------------------------------------------|
a---5---5--x2----4--5-7--7---------------------------------------------------|
d-----------------5--5-5-----------------------------------------------------|
g--5--4-----------------4----------------------------------------------------|
b----------------------------------------------------------------------------|
e----------------------------------------------------------------------------|

Bridge now im forging ahhead past all the plutocrats...
e-----5--5-------3-----------------------------------------------------------|
a-----x--x-------5------5----------------------------------------------------|
d-----5--5-------5------5----------------------------------------------------|
g-----5--4-------4------7----------------------------------------------------|
b-----x-----------------7----------------------------------------------------|
e----------------------------------------------------------------------------|

Other part-please take me out of my body
e----------3-----------------------------------------------------------------|
a----3-----5------7-----5----------------------------------------------------|
d----5-----x------5-----7----------------------------------------------------|
g----7-----7------7-----7----------------------------------------------------|
b----------------------------------------------------------------------------|
e----------------------------------------------------------------------------|
any other questions let me know. This is a song by say anything by max bemis he owns it.
 He also is the best musician alive.
Tap to rate this tab
 
# A B C D E F G H I J K L M N O P Q R S T U V W X Y Z