Song name
# A B C D E F G H I J K L M N O P Q R S T U V W X Y Z

Say Anything - Ahh Men tab

Intro/Verse 1:
e--------------------|
B--------------------|
G--------------------|
D--1----8----888-----|
A--2----9----999-----|  Reapeat as necessary
E--2----9----999-----|


Verse 2: ( The "Ahhh" part)
e-----------------|
B-----------------|
G---------8---11--|
D---1--8---8------|
A---2--9----9-----|
E---2--9----------|

e-----------------|
B-------------11--|
G---------8-------|
D---1--8---8------|
A---2--9----9-----|
E---2--9----------|

e-----------------|
B-----------------|
G---------8---11--|
D---1--8---8------|
A---2--9----9-----|
E---2--9----------|

e-----------------|
B-----------------|
G-----------------|
D---1--8----------|
A---2--9----------|
E---2--9----------|


Bridge: ("Can I lie with you in your grave...")
e----------------------------------------|
B---------------------------777--77-77---|
G---888--888--88-88----------------------|
D---999--999--99-99----888--888--88-88---|  Reapeat as necessary
A---666--777--77-77----999--999--99-99---|
E----------------------666---------------|


Outro:
e-------------------------------|
B--------------------------11/--|
G----------------------8--------|
D---1--8---888---1--8---8-------|
A---2--9---999---2--9----9------|
E---2--9---999---2--9-----------|

e----------------------|
B----------------------|
G----------------------|
D---1--8---888---1--8--|
A---2--9---999---2--9--|
E---2--9---000---2--0--|

END
Tap to rate this tab
 
# A B C D E F G H I J K L M N O P Q R S T U V W X Y Z