Song name
# A B C D E F G H I J K L M N O P Q R S T U V W X Y Z

Say Anything - Tickle Me Red tab

                      Say Anything - Tickle Me Red
                         tabbed by AbelHXC2


Note: Figure out the strumming(its not difficult)


Tuning - Standard


-VERSE-

e------x----x----x----x------x----x----x----0-----------|
B------0----0----0----0------0----0----0----0-----------|
G------6----6----6----1------6----6----6----9-----------|
D------7----7----7----2------7----7----7----7-----------|  (x4)
A------x----x----x----x------x----x----x----5-----------|
E------7----7----5----2------7----7----5----x-----------|

-CHORUS-

e-------0-----------------0-------------------0------------------0-------------------0--------|
B------------------------------------------------------------------------------------0--------|
G----------6------------------6------------------6------------------6----------------6--------|
D-----7-------(x4)-----7---------(x4)------7---------(x4)-----7----------(x2)--------7--------|
A--5------------------------------------5--------------------------------------------x--------|
E-------------------7--------------------------------------7-------------------------7--------|


-VERSE-

e------x----x----x----x------x----x----x----0-----------|
B------0----0----0----0------0----0----0----0-----------|
G------6----6----6----1------6----6----6----9-----------|
D------7----7----7----2------7----7----7----7-----------|  (x5)
A------x----x----x----x------x----x----x----5-----------|
E------7----7----5----2------7----7----5----x-----------|


-CHORUS-

e-------0-----------------0-------------------0------------------0-------------------0--------|
B------------------------------------------------------------------------------------0--------|
G----------6------------------6------------------6------------------6----------------6--------|
D-----7-------(x4)-----7---------(x4)------7---------(x4)-----7----------(x2)--------7--------|
A--5------------------------------------5--------------------------------------------x--------|
E-------------------7--------------------------------------7-------------------------7--------|


-BRIDGE/SOLO-

e------------------------------0----0----0----0-----------|
B------------------------------0----0----0----0-----------|
G----6----6----6----6----------6----6----6----6-----------|
D----6----7----4----4--(x2)----6----7----4----4--(x2)-----|
A----7----9----5----5----------7----9----5----5-----------|
E------------------------------0----0----0----0-----------|
  [Palm mute these chords]



-VERSE-

e------x----x----x----x------x----x----x----0-----------|
B------0----0----0----0------0----0----0----0-----------|
G------6----6----6----1------6----6----6----9-----------|
D------7----7----7----2------7----7----7----7-----------|  (x4)
A------x----x----x----x------x----x----x----5-----------|
E------7----7----5----2------7----7----5----x-----------|


-CHORUS-

e-------0-----------------0-------------------0------------------0-------------------0--------|
B------------------------------------------------------------------------------------0--------|
G----------6------------------6------------------6------------------6----------------6--------|
D-----7-------(x4)-----7---------(x4)------7---------(x4)-----7----------(x2)--------7--------|
A--5------------------------------------5--------------------------------------------x--------|
E-------------------7--------------------------------------7-------------------------7--------|



-OUTRO-

e---0-----0-----0-------------------0-----0-------12/14-12---------------|
B---0-----0-----0-------------------0-----0----------------14-12---------|
G---6-6-6-6-6-6-6-6-6-6-6-6---------6-6-6-6-6-6------------------13-14---|
D---7-7-7-7-7-7-7-7-7-7-7-7--(x3)---7-7-7-7-7-7--------------------------|
A---5-5-5-5-5-5-5-5-5-5-5-5---------5-5-5-5-5-5--------------------------|
E---0-----0-----0-------------------0-----0------------------------------|
      . .   . .   . . . . .           . .   . .
  (These change but I don't know to what chords)



This sounds pretty decent in my opinion. Hopefully you all think so too.
Tap to rate this tab
 
# A B C D E F G H I J K L M N O P Q R S T U V W X Y Z