Song name
# A B C D E F G H I J K L M N O P Q R S T U V W X Y Z

Say Anything - A Walk Through Hell tab

Hey it's Gibbs. Fairly easy song, my personal favorite by say anything. enjoy.

h=hammer on
p=pull off
/=slide up
\=slide down
x=mute

(two times)
e-------------------------------------------------------------------------|
B-------------------------------------------------------------------------|
G-----6--6-----6--6-----6--6-----6--6-----6--6-----6--6-----6--6----------|
D-----7--7-----7--7-----7--7-----7--7-----7--7-----7--7-0-0-7--7-0-0----7-|
A-0-0------0-0------9-9------9-9------7-7------7-7-------------------7h9--|
E-------------------------------------------------------------------------|

(two times)
e-2--2-xx-------------------------|
B-3--3-xx-----------------2--2-xx-|
G-2--2-xx-6--6-xx-4--4-xx-2--2-xx-|
D---------6--6-xx-4--4-xx-2--2-xx-|
A---------4--4-xx-2--2-xx-0--0-xx-|
E---------------------------------|

(one time)
e-2--2-xx-------2-|
B-3--3-xx-------0-|
G-2--2-xx-6--6--2-|
D---------6--6--0-|
A---------4--4--2-|
E---------------0-|

(two times)
e-------------------------------------------------------------------------|
B-------------------------------------------------------------------------|
G-----6--6-----6--6-----6--6-----6--6-----6--6-----6--6-----6--6----------|
D-----7--7-----7--7-----7--7-----7--7-----7--7-----7--7-0-0-7--7-0-0----7-|
A-0-0------0-0------9-9------9-9------7-7------7-7-------------------7h9--|
E-------------------------------------------------------------------------|

(two times)
e-2--2-xx-------------------------|
B-3--3-xx-----------------2--2-xx-|
G-2--2-xx-6--6-xx-4--4-xx-2--2-xx-|
D---------6--6-xx-4--4-xx-2--2-xx-|
A---------4--4-xx-2--2-xx-0--0-xx-|
E---------------------------------|

(one time)
e-2--2-xx-------2----|
B-3--3-xx-------0----|
G-2--2-xx-6--6--2--1-|
D---------6--6--0--2-|
A---------4--4--2--0-|
E---------------0--0-|

(three times)
e-2-22----------------|
B-3-33-2--2-----------|
G-2-22-2--2-0-00-2--2-|
D------2--2-2-22-4--4-|
A------0--0-2-22-4--4-|
E-----------0-00-2--2-|

(one time)
e-------------------------------|
B-------------------------------|
G-6h7/9-6-6p4\2---------2h4/6-4-|
D---------------4p2h4p2---------|
A-------------------------------|
E-------------------------------|

(one time)
e---------------------------------|
B---------------------------------|
G-6h7/9-6-6p4\2---------2h4/6-4-2-|
D---------------4p2h4p2-----------|
A---------------------------------|
E---------------------------------|

(two times)
e-2---------------|
B-3-----------2---|
G-2---6---4---2---|
D-----6---4---2---|
A-----4---2---0---|
E-----------------|

(one time)
e-2-------2---|
B-3-------0---|
G-2---6---2---|
D-----6---0---|
A-----4---2---|
E---------0---|

(four times)
e-2-22----------------|
B-3-33-2--2-----------|
G-2-22-2--2-0-00-2--2-|
D------2--2-2-22-4--4-|
A------0--0-2-22-4--4-|
E-----------0-00-2--2-|

(one time)
e-2-----------|
B-3---2-------|
G-2---2---0---|
D-----2---2---|
A-----0---2---|
E---------0---|
Tap to rate this tab
# A B C D E F G H I J K L M N O P Q R S T U V W X Y Z