Song name
# A B C D E F G H I J K L M N O P Q R S T U V W X Y Z

Say Anything - Cemetery tab

-----------------------------------------------------------------------------
			    Cemetery - Say Anything
-----------------------------------------------------------------------------

Tabbed by: x3ricxblink182

Email:x3ricxblink182@aim.com

Tuning: D A D G D D


Intro:

D|-----------------------------|
D|-----------------------------|
G|--7-7--7-7-7--6-6-6--7-7-7---|
D|--0-0--x-x-x--4-4-4--5-5-5---|
A|--0-0--9-9-9--4-4-4--5-5-5---|
D|--0-0--9-9-9--4-4-4--5-5-5---|

D|-----------------------------*12--|
D|-----------------------------*12--|
G|--7-7-7--7-7-7--6-6-6--7-7--------|
D|--0-0-0--x-x-x--4-4-4--5-5--------|
A|--0-0-0--9-9-9--4-4-4--5-5--------|
D|--0-0-0--9-9-9--4-4-4--5-5--------|


Verse:

D|-------------------------------|
D|-------------------------------|
G|--7-7-7--7-7-7--6-6-6--7-7-7---|
D|--0-0-0--x-x-x--4-4-4--5-5-5---|
A|--0-0-0--9-9-9--4-4-4--5-5-5---|
D|--0-0-0--9-9-9--4-4-4--5-5-5---| 

“Nothing seems to turn out right, 

something’s gotta turn out right”

D |--0-0-0--0-0-0--0-0-0--0-0-0---|
D |--0-0-0--0-0-0--0-0-0--0-0-0---|
G |--7-7-7--7-7-7--6-6-6--7-7-7---|
D |--0-0-0--x-x-x--4-4-4--5-5-5---|
A |--0-0-0--9-9-9--4-4-4--5-5-5---|
D |--0-0-0--9-9-9--4-4-4--5-5-5---|


Chorus:

D|--0-0-0-0--0-0-0-0--0-0-0-0--0-0-0-0-0-0----|
D|--0-0-0-0--0-0-0-0--0-0-0-0--0-0-0-0-0-0----|
G|--7-7-7-7--7-7-7-7--7-7-7-7--7-7-7-6-6-6----|
D|--7-7-7-7--0-0-0-0--7-7-7-7--0-0-0-0-0-0----|
A|--5-5-5-5--x-x-x-x--5-5-5-5--x-x-x-x-x-x----|
D|--5-5-5-5--9-9-9-9--5-5-5-5--9-9-9-7-7-7----|


“You’re in my body”

D|---------------|
D|---------------|
G|--7--7--7--6---|
D|--7--7--0--0---|
A|--5--0--x--x---|
D|--5--0--9--7---|
            

Bridge:

"Falling asleep…"

D|--0-0-0-0--0-0-0-0--0-0-0-0--0-0-0-0---|
D|--0-0-0-0--0-0-0-0--0-0-0-0--0-0-0-0---|
G|--7-7-7-7--7-7-7-7--7-7-7-7--6-6-6-6---|
D|--7-7-7-7--0-0-0-0--7-7-7-7--0-0-0-0---|
A|--5-5-5-5--x-x-x-x--5-5-5-5--x-x-x-x---|
D|--5-5-5-5--9-9-9-9--5-5-5-5--7-7-7-7---|
Tap to rate this tab
# A B C D E F G H I J K L M N O P Q R S T U V W X Y Z