Song name
# A B C D E F G H I J K L M N O P Q R S T U V W X Y Z

Say Anything - We Killed It tab

-----------------------------------------------------------------------------
			     WE KILLED IT - Say Anything
-----------------------------------------------------------------------------
Tabbed by: CWasson
Email: caleb.wasson12@gmail.com

Tuning: Drop D
           

           ...and she did, we were captives on a casino ship...
e|-------------------------------------------------------------------------|
B|--55x5-5x555x5-5------------------------55x5x5x5x5x5x5x5x5-555-----------|
G|--66x6-6x666x6-6/999-99x9-9x999x9-999---66x6x6x6x6x6x6x6x6-666-----------|
D|--66x6-6x666x6-6/999-99x9-9x999x9-999---66x6x6x6x6x6x6x6x6-666-----------|
A|--44x4-4x444x4-4/777-77x7-7x777x7-666---44x4x4x4x4x4x4x4x4-444-----------|
E|---------------------77x7-7x777x7-666------------------------------------|



e|--------------------------------------------|
B|--------------------------------------------|
G|---------------------9/8--------------------|    x2
D|--2222/7-66---2222/7-9/8--------------------|
A|--2222/7-66---2222/7-7/6--------------------|
E|--2222/7-66---2222/7------------------------|
            


                ...but the first few weeks were great, I felt content to...    
e|----------------------------------------------------|
B|----------------------------------------------------| Play until "I dream, 
G|--9-9x-x9-9x-x9-9x-x9-9x-x9-9x-x9-9x-x9-9x-x9-9x----|I dream, I dream" then 
D|--------------------------7-7x-x7-7x-x9-9x-x9-9x----|play the same notes  
A|--9-9x-x9-9x-x9-9x-x9-9x-x--------------------------|without the mutes.
E|----------------------------------------------------|
           

     ...Yeah, we killed it, we killed it all night...
e|-------------------------------------------------------------------------|
B|---5x--------------------------55x5~x------------------------------------|
G|---6x9999----------------------66x6~x9999--------------------------------|
D|---6x9999-2222442/7p6h77722222-66x6~x9999-2222442/7p6h77722222-----------|
A|---4x7777-2222442/7p6h77722222-44x4~x7777-2222442/7p6h77722222-----------|
E|-------77-2222442/7p6h77722222---------77-2222442/7p6h77722222-----------|


END ON:
e|-----------|
B|----5~-----|
G|----6~-----|
D|----6~-----|
A|----4~-----|
E|-----------|

************************************

| /   slide up
| \   slide down
| h   hammer-on
| p   pull-off
| ~   vibrato
| +   harmonic
| x   Mute note
| b   Bend
| pb  Pre-bend
| br  Bend release
| pbr Pre-bend release
| brb Bend release bend

************************************
Tap to rate this tab
 
# A B C D E F G H I J K L M N O P Q R S T U V W X Y Z