Song name
# A B C D E F G H I J K L M N O P Q R S T U V W X Y Z

Say Anything - Burn A Miracle tab

This is my first tab so please, no hating :)

Tuning: Drop D

Verse:

e|----------------------------------------------|
B|----------------------------------------------|
G|-7-7-7-7----7-7-7-7----7-7-7-7----7-7--7-7----|   rhythm repeats until 2:nd
D|-8-8-8-8----8-8-8-8----8-8-8-8----8-8--8-8----|   part of verse, "but now
A|-6-6-6-6----5-5-5-5----x-x-x-x----x-x--x-x----|   I'm coming alive". there
D|-----------------------5-5-5-5----5-5--5-5----|   you can figure it out by
                                                    yourself

Last time before chorus, "I need to ask your children a question
 Do you really wanna stand stiff at attention?" the guitar drops into a fourth chord as 
written below:

e|----------------------------------------------|
B|----------------------------------------------|
G|-7----------7----------7----------7-----2-----|
D|-8----------8----------8----------8-----3-----|
A|-6----------5----------x----------x-----x-----|
D|-----------------------5----------5-----3-----|

Chorus:

"Do you want it..."

You can figure out the strumming

e|----------------------------------------------|
B|----------------------------------------------|
G|-7----------7----------7----------7-------2---|
D|-8----------8----------8----------8-------3---|
A|-x----------5----------x----------x-------x---|
D|-8---------------------5----------5-------3---|


Then:

"Burn a miracle if you've got a soul"

e|----|
B|----|   I was too lazy to figure out the lead melody on this one, but it's
G|-7--|   all based on this chord
D|-8--|
A|-x--|
D|-8--|

-----------------------------------------------------------------------------

Repeat;

-Verse

-Chorus x2

-"Burn A Mirace" Part Again

-----------------------------------------------------------------------------

Stick:

"I know a place"

Figure out strumming

e|-------------------------------------------------|
B|-------------------------------------------------|
G|-7-----------------------7-----------2-----------|
D|-8-----------------------8-----------3-----------|
A|-6-----------------------x-----------x-----------|
D|-------------------------8-----------3-----------|


Thank you for reading and I hope you enjoyed playing this song as much as I
did! Can barely wait until march for their new album! See you then ;D
/WiponCat
Tap to rate this tab
# A B C D E F G H I J K L M N O P Q R S T U V W X Y Z