Song name
# A B C D E F G H I J K L M N O P Q R S T U V W X Y Z

Say Anything - Peace Out tab

-------------------------------------------------------------------------------
                             Peace Out  Say Anything
-------------------------------------------------------------------------------
Tabbed by: Erick
Email: erick.nass@gmail.com

Great song from the new Say Anything album, one of my favs.
Im primarily putting this up here to provide some incentive for someone else to figure 
this out a little better.
Ive been dying to play and sing this song, but Im having trouble figuring out the right 
chords and picking.
Also it makes it harder with the different sounding instrument being played.
Comments and corrections or alternate suggestions are wanted, because I gotta
figure it out. If I can figure out the rest ill post it. Thanks.

Tuning:standard

Intro/verse
e|-------------------------------------|
B|---10--9--7--9-----------------------|
G|---x-------------9----9--7--6--------|
D|---x-------------7----7--------9-----| (x6)
A|---x-------------9----9--------7-----|
E|---9---------------------------------|

Verse(they begin playing something like this)
e|-------------------------------------------------|
B|-------------------------------------------------|
G|--------9-----------9--9-------9--9--------9-----|
D|-----7--7--7-----7--7--7----7--7--7-----7--7-----|(x4)
A|---5----5--5--------x-----9----9--9--7-----7-----|
E|--------------5-----5----------------------------|

Chorus(chord progression only, listen for strumming)
e|------------------------|
B|------------------------|
G|---9----9----9----9-----|
D|---7----7----7----7-----|
A|---5----9----7----7-----|
E|-------------5----------|
Tap to rate this tab
 
# A B C D E F G H I J K L M N O P Q R S T U V W X Y Z