Song name
# A B C D E F G H I J K L M N O P Q R S T U V W X Y Z

Say Anything - Overbiter tab

OVERBITER by Say Anything

Tabbed by: rooozhkooov
Email: alexroga7@gmail.com
Tuning: standard
Strumming pattern not shown

Intro:

e|-------------------|
B|-------------------|
G|---9---9---9---9---|
D|---6---7---7---7---|
A|---7---9---5---x---|
E|---------------5---|

1st verse:

(In this dream...)
e|-------------------|
B|-------------------|
G|---9---9---9---9---|
D|---6---7---7---7---|
A|---7---9---5---x---|
E|---------------5---|

Prechorus:

(Screaming all the way...)
e|-------------------------------------|-----------------------|
B|-------------------------------------|-----------------------|
G|-------9-------9-------9-------9-----|-------9-------9-------|
D|-----7---7---7---7---7---9---6---6---|-----7---7---7---7-----|
A|---4-------5-------9-------7---------|---4-------5-------7---|
E|-------------------------------------|-----------------------|

(Want this so bad...)
e|-------|
B|-------|
G|---9---|
D|---6---|
A|---7---|
E|-------|

Chorus:

(I want it bad, so bad, I want it so bad...)
e|-------------------|
B|-------------------|
G|---9---9---9---9---|
D|---6---7---7---7---|
A|---7---9---5---x---|
E|---------------5---|

2nd verse:

(You'll fax your number...)
e|-------------------|
B|-------------------|
G|---9---9---9---9---|
D|---6---7---7---7---|
A|---7---9---5---x---|
E|---------------5---|
Prechorus:

(Screaming all the way...)
e|-------------------------------------|-----------------------|
B|-------------------------------------|-----------------------|
G|-------9-------9-------9-------9-----|-------9-------9-------|
D|-----7---7---7---7---7---9---6---6---|-----7---7---7---7-----|
A|---4-------5-------9-------7---------|---4-------5-------7---|
E|-------------------------------------|-----------------------|

(Want this so bad...)
e|-------|
B|-------|
G|---9---|
D|---6---|
A|---7---|
E|-------|

Chorus:

(I want it bad, so bad, I want it so bad...)
e|-------------------|
B|-------------------|
G|---9---9---9---9---|
D|---6---7---7---7---|
A|---7---9---5---x---|
E|---------------5---|

Bridge:

(I can feel. I can taste it...)
e|----------------------------------------|
B|----------------------------------------|
G|----------------------------------------|
D|---7---(strum this chord for a while)---|
A|---7------------------------------------|
E|---5------------------------------------|

(Say you will...)
e|-----------|
B|-----------|
G|---6---6---|
D|---7---7---|
A|---5---7---|
E|-----------|

*play this four times

(Want this so bad...)
e|-------|
B|-------|
G|---9---|
D|---6---|
A|---7---|
E|-------|

Chorus:

(I want it bad, so bad, I want it so bad...)
e|-------------------|
B|-------------------|
G|---9---9---9---9---|
D|---6---7---7---7---|
A|---7---9---5---x---|
E|---------------5---|

End up with:
e|-------|
B|-------|
G|---9---|
D|---7---|
A|---x---|
E|---5---|
Tap to rate this tab
# A B C D E F G H I J K L M N O P Q R S T U V W X Y Z