Song name
# A B C D E F G H I J K L M N O P Q R S T U V W X Y Z

Say Anything - Say Anything tab

SAY ANYTHING by Say Anything

Tabbed by rooozhkooov
Email: alexroga7@gmail.com
Tuning: half-step down

Strumming pattern not shown.

1st verse:

(Condemn my race...)
eb|-------------------|
Bb|---5---5---6---5---|
Gb|---5---5---5---5---|
Db|---x---x---3---3---|
Ab|---3---5---x---x---|
Eb|-------------------|

Finish the verse with this:
eb|---x-x-x---|
Bb|---x-x-x---|
Gb|---x-x-x---|
Db|---x-x-x---|
Ab|---x-x-x---|
Eb|---x-x-x---|

Chorus:

(Anything for you...)
eb|-------------------|
Bb|---6---6---5---6---|
Gb|---5---5---5---5---|
Db|---x---3---3---3---|
Ab|---5---x---x---x---|
Eb|-------------------|

Finish the chorus with:
eb|----------------------------------------------------|
Bb|---5------------------------------------5---x-------|
Gb|---5------------------------------------5---x-------|
Db|---x---(strum this chord for a while)---x---5---5---|
Ab|---x------------------------------------x---5---x---|
Eb|---3------------------------------------3---3---3---|

2nd verse:

(If Satan...)
eb|-------------------|
Bb|---5---5---6---5---|
Gb|---5---5---5---5---|
Db|---x---x---3---3---|
Ab|---3---5---x---x---|
Eb|-------------------|

(I'd throw up...)
eb|---------------|-------------------|
Bb|---------------|---x-------x-------|
Gb|---------------|---9-------9-------|
Db|---x---x---x---|---x---x---x---x---|
Ab|---3---5---7---|---7---7---7---7---|
Eb|---x---x---x---|---x---x---x---x---|

(To put a ring upon...)
eb|-----------|
Bb|---x---x---|
Gb|---5---7---|
Db|---x---x---|
Ab|---3---5---|
Eb|---x---x---|

(...with me.)
eb|-----------|-----------|
Bb|---6---5---|---6---5---|
Gb|---5---5---|---5---5---|
Db|---3---3---|---3---3---|
Ab|---x---x---|---x---x---|
Eb|-----------|-----------|

Chorus:

(Anything for you...)
eb|-------------------|
Bb|---6---6---5---6---|
Gb|---5---5---5---5---|
Db|---x---3---3---3---|
Ab|---5---x---x---x---|
Eb|-------------------|

Bridge:

eb|-------------------------------------------|-----------|
Bb|---------------6---5-----------------------|---6---5---|
Gb|---5---7---9---5---5-----------------------|---5---5---|
Db|---x---x---x---3---3---(play this twice)---|---3---3---|
Ab|---3---5---7---x---x-----------------------|---x---x---|
Eb|---x---x---x-------------------------------|-----------|

Chorus:

(Anything for you...)
eb|-------------------|
Bb|---6---6---5---6---|
Gb|---5---5---5---5---|
Db|---x---3---3---3---|
Ab|---5---x---x---x---|
Eb|-------------------|

Outro:

(I'd condemn my race...)
eb|---0---3---0-----------------------------|---0-------------------|
Bb|---1---0---1-----------------------------|---1-------------------|
Gb|---0---0---x-----------------------------|---0-------------------|
Db|---2---0---3---(play this three times)---|---2---(let it ring)---|
Ab|---3---2---x-----------------------------|---3-------------------|
Eb|---x---3---x-----------------------------|---x-------------------|

End up with:
eb|---3---0---|
Bb|---0---1---|
Gb|---0---x---|
Db|---0---3---|
Ab|---2---x---|
Eb|---3---x---|
Tap to rate this tab
 
# A B C D E F G H I J K L M N O P Q R S T U V W X Y Z