Song name
# A B C D E F G H I J K L M N O P Q R S T U V W X Y Z

Say Anything - So Good tab

Stranded Tuning

Capo 5th Fret

Tabbing counts from Capo

Chords:
Finger positions
        I            II        III
e--------------|----------|----------|
B--------------|----------|----------|
G------4-------|--4-------|--4-------|
D------2-------|--2-------|--2-------|
A------4-------|--2-------|--0-------|
E--------------|----------|----------|

Intro:
        I            II         III
e--------------|----------|----------|----------|
B--------------|----------|----------|----------|
G--------4-----|----4-----|----4-----|----4-----|
D-----------2--|-------2--|-------2--|-------2--|
A------4-------|--2-------|--0-------|--0-------|
E--------------|----------|----------|----------|

Verse:
        I            II         III
e--------------|----------|----------|----------|
B--------------|----------|----------|----------|
G--------4-----|----4-----|----4-----|----4-----|
D-----------2--|-------2--|-------2--|-------2--|
A------4-------|--2-------|--0-------|--0-------| x4
E--------------|----------|----------|----------|

Chorus:
        I             III       II
e---------------|-----------|-----------|---------------|
B---------------|-----------|-----------|---------------|
G---------4-----|-----4-----|-----4-----|-----4-------4-|
D------------2--|--------2--|--------2--|--------2------|
A------4--------|--0--------|--2--------|--2--------2---|
E---------------|-----------|-----------|---------------|


        III             I       II
e---------------|-----------|-----------|---------------|
B---------------|-----------|-----------|---------------|
G---------4-----|-----4-----|-----4-----|-----4-------4-|
D------------2--|--------2--|--------2--|--------2------|
A------0--------|--4--------|--2--------|--2--------2---| x6
E---------------|-----------|-----------|---------------|

Verse:
        I            II         III
e--------------|----------|----------|----------|
B--------------|----------|----------|----------|
G--------4-----|----4-----|----4-----|----4-----|
D-----------2--|-------2--|-------2--|-------2--|
A------4-------|--2-------|--0-------|--0-------| x4
E--------------|----------|----------|----------|

That gives you what you need for the whole song listen to it and follow.
Also tempo changes between the Verse and Chorus.
Tap to rate this tab
# A B C D E F G H I J K L M N O P Q R S T U V W X Y Z