Song name
# A B C D E F G H I J K L M N O P Q R S T U V W X Y Z

Say Anything - Its A Metaphor Fool tab

It's a Metaphor, Fool by Say Anything

Tabbed by: wtflolbbq

Notes:
* Verse 1 (first half) was taken from Murasaki's tab (version 1).

* This tab was made because none other tab out there currently comes even close to completeness.

* I'm not sure this is 100% correct, in fact, I'm almost sure it's not. There are parts
where the distortion makes the notes very hard to pick out. However, I'm sure 90% of the 
tab is correct.

* This is only Guitar 1's part. This means I have not tabbed out the solo or any of the 
overlaid sliding
octaves. HOWEVER, if there's enough activity on this tab, I may decide to tab out Guitar 2.

* If you want the solo, part of it is in this tab...
  = http://tabs.ultimate-guitar.com/s/say_anything/its_a_metaphor_fool_acoustic_tab.htm

* Post a comment below and I'll be sure to see it, or write on my UG profile. If you 
have a correction,
post it in the corrections tab for this tab.

* Last, but not least, enjoy the tab. Say Anything is an awesome band so I had real fun 
tabbing this song out.


Intro
e|----------------------------------------------------|
B|-3333333333333333-3333333333333333------------------|
G|-4444444444444444-4444444444444444-7777777777777777-|
D|-5555555555555555-5555555555555555-5555555555555555-|
A|-5555555555555555-xxxxxxxxxxxxxxxx-3333333333333333-|
E|-3333333333333333-5555555555555555------------------|

e|--------------------|
B|--------------------|
G|------5-----5-5-5---|
D|-5-55x5x5---5-5-5---|
A|-5-55x3x5---3-3-3---|
E|-3-33x3x3-----------|


Verse 1
e|-----------------------------------------------------------------------|
B|-----------------------------------------------------------------------|
G|------------------------------------------------------------------555--|
D|-5-55--555555555555-----555555555555-----55555555-----------------555--|
A|-5-55--------------000--------------333-----------3h2p0-----3-----333--|
E|-3-33---------------------------------------------------333---3--------|

e|------------------------------------------------------------------------|
B|------------------------------------------------------------------------|
G|---------------------------------xxx-5-55-xxx----------------5---5-5-5--|
D|-------555555555555-----555555555xxx-5-55-xxx-6-66-xxxx-5-55-5-5-5-5-5--|
A|-5-55--------------000-----------xxx-3-33-xxx-6-66-xxxx-5-55-3-5-3-3-3--|
E|-3-33-----------------------------------------4-44-xxxx-3-33---3--------|


Refrain 1
e|---------------------------------------------------------------------------|
B|---------------------------------------------------------------------------|
G|---------------------------------777777777777---------5---5-5-5------------|
D|-55555555555555557777777777777777555555555555----5-55-5-5-5-5-5------------|
A|-55555555555555557777777777777777333333333333320-5-55-3-5-3-3-3------------|
E|-33333333333333335555555555555555----------------3-33---3------------------|

e|---------------------------------------------------------------------------|
B|---------------------------------------------------------------------------|
G|---------------------------------7-7-x77--------------5--------------------|
D|-55555555555555557777777x7-7-5-5-5-5-x55-6-6-xxx-5-55-5-5-55-555-----------|
A|-55555555555555557777777x7-7-5-5-3-3-x33-6-6-xxx-5-55-3-5-55-555-----------|
E|-33333333333333335555555x5-5-3-3---------4-4-xxx-3-33---3-33-333-----------|


Interlude 1
e|-3-33---3-33---3-33--------------------------------------------------------|
B|-3-33---3-33---3-33---------3-33---3-33---3-33-----------------------------|
G|-4-44---4-44---4-44---5-5---4-44---4-44---4-44---4-------------------------|
D|-5-55---5-55---5-55---5-5---5-55---5-55---5-55---5-------------------------|
A|---------------------------------------------------------------------------|
E|------3------3------3-5-5-3------3------3------3-5-------------------------|

e|-3-33---3-33---3-33--------------------------------------------------------|
B|-3-33---3-33---3-33---------3-33---3-33---3-33---33333333------------------|
G|-4-44---4-44---4-44---5-5---4-44---4-44---4-44---44444444------------------|
D|-5-55---5-55---5-55---5-5---5-55---5-55---5-55---55555555------------------|
A|---------------------------------------------------------------------------|
E|------3------3------3-5-5-3------3------3------3-55553333------------------|
                                                   thumb it!

Interlude 2
#Synth tabbed out for guitar#
e|-3---2---3---5-2-3---2---3---5-7-|
B|-----3---------------3-----------|
G|-0-------4---5-4-0-------4---5-4-|
D|---------------------------------|
A|---------------------------------|
E|---------------------------------|


Interlude 3
e|---------------------------------|
B|---------------------------------|
G|---------777-777-444-444-5555----|
D|-555-555-777-777-555-555-5555666-|
A|-555-555-555-555-222-222-3333666-|
E|-333-333---------------------444-|

e|---------------------------------|
B|---------------------------------|
G|---------777-777-----------------|
D|-555-555-777-777-----------------|
A|-555-555-555-555-55555555555555--|
E|-333-333---------22222222333333--|


Solo (Rhythm) / Interlude 4
e|-3-33---3-33---3-33--------------------------------------------------------|
B|-3-33---3-33---3-33---33333333--3-33---3-33---3-33---33333333--------------|
G|-4-44---4-44---4-44---44444444--4-44---4-44---4-44---44444444--------------|
D|-5-55---5-55---5-55---55555555--5-55---5-55---5-55---55555555--------------| x2
A|---------------------------------------------------------------------------|
E|------3------3------3-55553333-------3------3------3-55553333--------------|

e|-3-33---3-33---3-33-----------------------------------|
B|-3-33---3-33---3-33---33333333--3-33---3-33---3-33----|
G|-4-44---4-44---4-44---44444444--4-44---4-44---4-44----|
D|-5-55---5-55---5-55---55555555--5-55---5-55---5-55----|
A|------------------------------------------------------|
E|------3------3------3-55553333-------3------3------3--|

e|--------------------------------|------|-------|
B|------------------4-------------|------|-------|
G|--------------5---4-------------|------|-5-5-5-|
D|-7-7-7-7-7-7--5---5---------55--|-bass-|-5-5-5-|
A|-7-7-7-7-7-7--3-------------55--|------|-3-3-3-|
E|-5-5-5-5-5-5--3-------------33--|------|-------|


Interlude 5
e|---------------------------------------------------------------------------|
B|---------------------------------------------------------------------------|
G|------------------------------------5-5---5-5---4-4---5-4------------------|
D|-5555555555559999777777771010997755-5-5---6-6---5-5---5-5------------------|
A|------------------------------------3-3---6-6---5-5---3-5------------------|
E|-3333333333337777555555558-8-775533-3-3---4-4---3-3---3-3------------------|
                                   trust me, that third is there.

Refrain 2
e|--------------------------------------------------------------------|
B|--------------------------------------------------------------------|
G|-----------------------------------77777777-------------5-----5-5-5-|
D|-555555555555999977777777101099775555555555666666665555-5-5-5-5-5-5-|
A|-555555555555999977777777101099775533333333666666665555-3-5-5-3-3-3-|
E|-3333333333337777555555558-8-775533--------444444443333-3-3-3-------|

e|---------------------------------------------------------------|
B|---------------------------------------------------------------|
G|------------------------------------5-55-xxx--------------5----|
D|-5555555555559999777777771010997755-5-55-xxx6-66-xxxx-5-5-5-5--|
A|-5555555555559999777777771010997755-3-33-xxx6-66-xxxx-5-5-3-5--|
E|-3333333333337777555555558-8-775533-3-33----4-44-xxxx-3-3-3-3--|


Outro
e|---------|
B|---------|
G|-5-5-5---|
D|-5-5-55--|
A|-3-3-35--|
E|-3-3-33--|
Tap to rate this tab
 
# A B C D E F G H I J K L M N O P Q R S T U V W X Y Z