Song name
# A B C D E F G H I J K L M N O P Q R S T U V W X Y Z

Say Anything - Wow I Can Get Sexual Too tab

Wow, I Can Get Sexual Too by Say Anything

Tabbed by: wtflolbbq

Notes:
* Tabbed because the other version didn't quite have the song right. However, thanks go to
  weeknights and RHCPRocker12 for inspiring me to tab out this song and to provide 
guidance along the way.

* The intro was tabbed out in two ways because I figured the first way might be a 
stretch for those
  with smaller hands. The second version is just as correct but in a different fingering.

* This song is mainly Keyboard and Bass, but many of the parts were transcribed for Guitar.

* The only part that isn't is the keyboard chorus accompaniment. If you want me to tab 
that out, pm me.

* If you have a correction, post it in the corrections section for this song and I will 
be sure to update
  the tab and give credit where it's due.

* The spacing in the tab, while done with consideration of the song, does not accurately reflect
  the time of the notes. Use your best judgement and make sure you listen to the song to 
hear when the notes
  should be played.

* Last, but not least, enjoy the tab and make sure you give a comment/rating and check 
out some of my
  other tabs!



Intro/Verse: (Keyboard + Bass)
e|-------------------------------|
B|-5---5----------5---5----------|
G|-5---5----------5---5----------|
D|-5---5----------5---5----------|
A|-------------------------------|
E|-3---0----------5---1----------|

OR if you prefer...

e|-0---0----------0---0----------|
B|-1---1----------1---1----------|
G|-0---0----------0---0----------|
D|-------------------------------|
A|----------------0--------------|
E|-3---0--------------1----------|



Chorus: (Clean Guitar)
e|-----------------------------------|
B|-13--12--13--12--13--12--13--15----|
G|---12--12--12--12--12--12--12--12--|
D|-----------------------------------|
A|-----------------------------------|
E|-----------------------------------|

e|-------------------------12--------|
B|-13--12--13--12--13--12------12----|
G|---12--12--12--12--12--12--12--12--|
D|-----------------------------------|
A|-----------------------------------|
E|-----------------------------------|

e|-----------------------------------|
B|-13--12--13--12--13--12--13--12----|
G|---12--12--12--12--12--12--12--12--|
D|-----------------------------------|
A|-----------------------------------|
E|-----------------------------------|

e|-----------10--10------------------|
B|-10--10--12--12--13--13--13--13----|
G|---12--12----------12--12--12--12--|
D|-----------------------------------|
A|-----------------------------------|
E|-----------------------------------|



Verse 2: (Keyboard + Bass)
e|-------------------------------|
B|-5---5----------5---5----------|
G|-5---5----------5---5----------|
D|-5---5----------5---5----------|
A|-------------------------------|
E|-3---0----------5---1----------|

OR

e|-0---0----------0---0----------|
B|-1---1----------1---1----------|
G|-0---0----------0---0----------|
D|-------------------------------|
A|----------------0--------------|
E|-3---0--------------1----------|



Fill 1: (Slightly Distorted Guitar)
e|----------|
B|----------|
G|-----5-5--|
D|-5h7------|
A|----------|
E|----------|

Fill 2: (Slightly Distorted Guitar)
e|------------|
B|------------|
G|-----5-7-5--|
D|-5h7--------|
A|------------|
E|------------|



Interlude: (Synth)
e|---------8--7----------------------------|
B|-8---8---------10---8---8---10-8-10-8----|
G|---9---9---9--9-------9---9-----9-----9--|
D|-----------------------------------------|
A|-----------------------------------------|
E|-----------------------------------------|



Chorus 2: (Clean Guitar)
e|-----------------------------|
B|-13--12--13--12--13--12--13--|
G|---12--12--12--12--12--12----|
D|-----------------------------|
A|-----------------------------|
E|-----------------------------|

e|-------------|---------12------|
B|-13--12--13--|-13--12------12--|
G|---12--12----|---12--12--12----|
D|-------------|-----------------|
A|-------------|-----------------|
E|-------------|-----------------|

e|-----------------------------|
B|-13--12--13--12--13--12--13--|
G|---12--12--12--12--12--12----|
D|-----------------------------|
A|-----------------------------|
E|-----------------------------|

e|-----------10--10------------------|
B|-10--10--12--12--13--13--13--13----|
G|---12--12----------12--12--12--12--|
D|-----------------------------------|
A|-----------------------------------|
E|-----------------------------------|



Chorus 3: (Clean Guitar)
e|-----------------------------------|
B|-13--12--13--12--13--12--13--15----|
G|---12--12--12--12--12--12--12--12--|
D|-----------------------------------|
A|-----------------------------------|
E|-----------------------------------|

e|-------------------------12--------|
B|-13--12--13--12--13--12------12----|
G|---12--12--12--12--12--12--12--12--|
D|-----------------------------------|
A|-----------------------------------|
E|-----------------------------------|

e|-----------------------------------|
B|-13--12--13--12--13--12--13--12----|
G|---12--12--12--12--12--12--12--12--|
D|-----------------------------------|
A|-----------------------------------|
E|-----------------------------------|

e|-----------10--10--|----|
B|-10--10--12--12----|-5--|
G|---12--12----------|-5--|
D|-------------------|-5--|
A|-------------------|-3--|
E|-------------------|----|
Tap to rate this tab
 
# A B C D E F G H I J K L M N O P Q R S T U V W X Y Z