Song name
# A B C D E F G H I J K L M N O P Q R S T U V W X Y Z

Say Anything - Cemetery tab

INTRO x2
E|---------------------------------------------|
B|---------------------------------------------|
G|---------------------------------------------|
D|-0--0--0--x-12-12-12--x--7--7--7--x--7--7--7-|
A|-0--0--0--x--9--9--9--x--4--4--4--x--5--5--5-|
D|-0--0--0--x--9--9--9--x--4--4--4--x--5--5--5-|

VERSE 1 x9 (Same as Intro)
E|---------------------------------------------|
B|---------------------------------------------|
G|---------------------------------------------|
D|-0--0--0--x-12-12-12--x--7--7--7--x--7--7--7-|
A|-0--0--0--x--9--9--9--x--4--4--4--x--5--5--5-|
D|-0--0--0--x--9--9--9--x--4--4--4--x--5--5--5-|
  "There's a cemetery deep below the sea..."

PRE-CHORUS 1 x2 (Double up the strumming)
E|------------------------------------------------|
B|------------------------------------------------|
G|-------------7--7--7--7--------------7--7--6--6-|
D|-7--7--7--7--9--9--9--9--7--7--7--7--0--0--7--7-|
A|-5--5--5--5--9--9--9--9--5--5--5--5--0--0--7--7-|
D|-5--5--5--5--------------5--5--5--5--0--0-------|
  "If you want, then when we die..."

CHORUS x2 (Play once, then double up strumming)
E|---------------------|
B|---------------------|
G|-------7--6--7-----6-|
D|-7-----9--7--0-----7-|
A|-5-----9--7--0-----7-|
D|-5-----------0-------|
  "You're in my body..."

VERSE 2 x5
E|---------------------------------------------|
B|---------------------------------------------|
G|---------------------------------------------|
D|-0--0--0--x-12-12-12--x--7--7--7--x--7--7--7-|
A|-0--0--0--x--9--9--9--x--4--4--4--x--5--5--5-|
D|-0--0--0--x--9--9--9--x--4--4--4--x--5--5--5-|
  "There's no one who imagines like you..."

PRE-CHORUS 2 x2 (Double up the strumming)
E|------------------------------------------------|
B|------------------------------------------------|
G|-------------7--7--7--7--------------7--7--6--6-|
D|-7--7--7--7--9--9--9--9--7--7--7--7--0--0--7--7-|
A|-5--5--5--5--9--9--9--9--5--5--5--5--0--0--7--7-|
D|-5--5--5--5--------------5--5--5--5--0--0-------|
  "As I drown in lakes of fire..."

CHORUS x2 (Play once, then double up strumming)
E|---------------------|
B|---------------------|
G|-------7--6--7-----6-|
D|-7-----9--7--0-----7-|
A|-5-----9--7--0-----7-|
D|-5-----------0-------|
  "You're in my body..."

BRIDGE 1 x4 (Double up strumming)
E|------------------------------------------------|
B|------------------------------------------------|
G|------------------------------------------------|
D|-7--7--7--7--7--7--7--7--9--9--9--9-11-11-11-11-|
A|-5--5--5--5--5--5--5--5--7--7--7--7--7--7--7--7-|
D|-5--5--5--5--5--5--5--5--7--7--7--7--7--7--7--7-|
  "Falling asleep, asleep at the wheel..."

BRIDGE 2 x2 (Same as Pre-Chorus)
E|------------------------------------------------|
B|------------------------------------------------|
G|-------------7--7--7--7--------------7--7--6--6-|
D|-7--7--7--7--9--9--9--9--7--7--7--7--0--0--7--7-|
A|-5--5--5--5--9--9--9--9--5--5--5--5--0--0--7--7-|
D|-5--5--5--5--------------5--5--5--5--0--0-------|

PRE-CHORUS 3 x2 (Non-doubled)
E|------------------------|
B|------------------------|
G|-------7-----------7--6-|
D|-7-----9-----7-----0--7-|
A|-5-----9-----5-----0--7-|
D|-5-----------5-----0----|

CHORUS x3 (All doubled)
E|---------------------|
B|---------------------|
G|-------7--6--7-----6-|
D|-7-----9--7--0-----7-|
A|-5-----9--7--0-----7-|
D|-5-----------0-------|
  "YOU'RE IN MY BODY..."

End wherever you want as the last word of the song is usually unaccompanied by a chord.
Tap to rate this tab
 
# A B C D E F G H I J K L M N O P Q R S T U V W X Y Z