Song name
# A B C D E F G H I J K L M N O P Q R S T U V W X Y Z

Say Anything - Its A Metaphor Fool tab

"It's A Metaphor Fool"
by Say Anything
There is no full tab for this song, so I'll do a rough one. Won't be 100%
specific, but I'll give you 85%. Hows that?

Intro:
e|-----------------------------------------------------------------------|
B|-----------------------------------------------------------------------|
G|-4------4------4-------------------------------------------------------|
D|-5------5------5----------------5-------5-5-5--------------------------|
A|-5------0------3(x16)--5-5-5-5--3--5-5--3-3-3--5-----------------------|
E|-3(x16)-5(x16)---------3-3-3-3-----3-3---------3-----------------------|

Verse:
e|---------------------------------------------------------------------------|
B|---------------------------------------------------------------------------|
G|-----------------------------------------------------------------------555-|
D|--5-55---555555555555-555----555555555555-555-55555555-------------5---555-|
A|--5-55----------------000-----------------333-----------3h2p0--555-3--5333-|
E|--3-33---------------------------------------------------------333----3----|

e|----------------------------------------------------------------------|
B|----------------------------------------------------------------------|
G|----------------------------------------------------------------------|
D|--5-55---555555555555-555----555555555555--555---------------555------|
A|--5-55----------------000------------------333--666--555-55--333------|
E|--3-33------------------------------------------444--333-33-----------|

Chorus:
e|------------------------------------------------------------------------|
B|------------------------------------------------------------------------|
G|-4------4------4--------------------------------------------------------|
D|-5------5------5----------------5-------5-5-5---------------------------|
A|-5------0------3(x16)--5-5-5-5--3--5-5--3-3-3---------------------------|
E|-3(x16)-5(x16)---------3-3-3-3-----3-3----------------------------------|

e|-----------------------------------------------------------------------|
B|-----------------------------------------------------------------------|
G|-4------4-----44-44----------------------4-----------------------------|
D|-5------5-----55-55--555-------------555-5-----------------------------|
A|-5------0-----00-55--333-666-555-55--333-5-----------------------------|
E|-3(x16)-5(x8)-55-33------444-333-33------3-----------------------------|

Verse II "Woah...(Love like no other)"
e|-----------------------------------------------------------------------|
B|-----------------------------------------------------------------------|
G|-555-----555-----555-----555-------------------------------------------|
D|-555-555-555-555-555-555-555-555---------------------------------------|  x4
A|-333-555-333-555-333-555-000-555---------------------------------------|
E|-----333-----333-----333-----333---------------------------------------|

Verse II part 2 (this is synth initially, but this will work too)
e|-------------------------------------------------------------------------|
B|-------------------------------------------------------------------------|
G|-4~-7~-5~-5~-----4~-7~-5~-5----------------------------------------------|
D|-5~-7~-5~-5~-6~--5~-7~-5~-5----------777-777-555-555-555-----------------|
A|-5~-5~-2~-3~-6~--5~-5~-2~-3--555-555-555-555-222-222-333-666-------------|
E|-3~----------4~--3~----------333-333---------------------444-------------|

"adorn when you were born..."
e|------------------------------------------------------|
B|------------------------------------------------------|
G|---------777-777--55555555-55555555-------------------|
D|-555-555-777-777--55555555-55555555-------------------|
A|-555-555-555-555--22222222-33333333-------------------|
E|-333-333----------------------------------------------|

Verse II "Woah...(Love like no other)"
e|-----------------------------------------------------------------------|
B|-----------------------------------------------------------------------|
G|-----------------------------------------------------------------------|
D|-555-----555-----555-----555-------------------------------------------|  x3
A|-333-555-333-555-333-555-000-555---------------------------------------|
E|-----333-----333-----333-----333---------------------------------------|

Solo "Woah...(Love like no other)"
e|--------------------------------------------------------------------|
B|-------------------------------------4~-----------------------------|
G|---------------------------------5~--5~-----------------------------|
D|-555-----555-----555-----5555-55-5~--5~-----------------------------|
A|-333-555-333-555-333-555-0000-00-3~--3~-----------------------------|
E|-----333-----333-----333--------------------------------------------|

Final Chorus! ("All you are to me is dead..." [bass]
e|------------------------------------------------------------------------|
B|------------------------------------------------------------------------|
G|------------------------------------------------------------------------|
D|------------------------------------------------------------------------|
A|---------------------------------------------------------333------------|
E|-333-333-333-777-555-555-88775533-888-888-444-444-333-33----------------|


e|------------------------------------------------------------------------|
B|------------------------------------------------------------------------|
G|-------------------------5544-----55------------------------------------|
D|-555-555-555-999-777-777-xxxx7755-xx-66-55-55---------------------------|
A|-xxx-xxx-xxx-xxx-xxx-xxx-3322xxxx-33-xx-xx-xx---------------------------|
E|-333-333-333-777-555-555-----5533----44-33-33---------------------------|

e|------------------------------------------------------------------------|
B|------------------------------------------------------------------------|
G|------------------------------------------------------------------------|
D|--------------------------5544------555-55--------------------555-------|
A|-5555-555-55-9999-7777-77-3322-7755-333-33-6666-66-5555-555-5-333-5-----|
E|-3333-333-33-7777-5555-55------5533--------4444-44-3333-333-3-----3-----|

e|------------------------------------------------------------------------|
B|------------------------------------------------------------------------|
G|------------------------------------------------------------------------|
D|--------------------------5544------555-xxx------------------555--------|
A|-5555-555-55-9999-7777-77-3322-7755-333-xxx-666-xxx-555-55-5-333-5------|
E|-3333-333-33-7777-5555-55------5533---------444-xxx-333-33-3-----3------|

Okay, there we go, hope this one is more complete. Use it as you will and have fun.

~shiek
Tap to rate this tab
# A B C D E F G H I J K L M N O P Q R S T U V W X Y Z