Song name
# A B C D E F G H I J K L M N O P Q R S T U V W X Y Z

Say Anything - Tickle Me Red tab

-------------------------------------------------------------------------------
                    Tickle Me Red (solo) - Say Anything
-------------------------------------------------------------------------------
Tabbed by: upflupchuckfck
E-mail: upflup@gmail.com

Tuning: Standard

Small piano part at 1:11

e|---------------------------------------------------------------------|
B|---------------------------------------------------------------------|
G|---------------------------------------------------------------------|
D|---------------------------------------------------------------------|
A|--9---7---5---4---7----5--4-------9---7---5---9---7---4-5-4-5-4------|
E|-----------------------------5---------------------------------------|


Solo at 1:47

e|---------------------------2-----------------------------------------|
B|------------2-2-2------------4/5---2/3/2-----------------------------|
G|--4p2--1h2---------4-4-4---------------------------------------------|
D|---------------------------------------------------------------------|
A|---------------------------------------------------------------------|
E|---------------------------------------------------------------------|

e|---------------------------2-4/5--4--0-------------------------------|
B|------------2-2-2----------------------------------------------------|
G|--4p2--1h2---------4-4-4---------------------------------------------|
D|---------------------------------------------------------------------|
A|---------------------------------------------------------------------|
E|---------------------------------------------------------------------|
Play twice


Solo at 2:35
e|---------------------------------------------------------------------|
B|---------10-10----10-------10-10----10-------------------------------|
G|--/11-11-------11----11-11-------11----------------------------------|
D|---------------------------------------------------------------------|
A|--Just play around here to get the timing----------------------------|
E|---------------------------------------------------------------------|

  2:40
e|------17-17-17-17-17-17-17-------------------------------------------|
B|---------------------------------------------------------------------|
G|--11------------------------11-11-11-11/7---6~-----------------------|
D|---------------------------------------------------------------------|
A|---------------------------------------------------------------------|
E|---------------------------------------------------------------------|

  2:44
e|---------------------------------------------------------------------|
B|---------------------------------------7~---7~----7/5~---------------|
G|--7--6---6-6-6-6/2-------------6/7---6----6--------------------------|
D|-----------------------2/4---7---------------------------------------|
A|---------------------4-----------------------------------------------|
E|---------------------------------------------------------------------|




Outro at 4:11

e|---------------------------------------------------------------------|
B|---------------------------------------------------------------------|
G|-----------6--9------9/11/9------------------------------------------|
D|--6--7--9--------x8----------11p9------------------------------------|
A|-----------------------------------11h12-----------------------------|
E|---------------------------------------------------------------------|

Guitar 2:
e|-------------9--12-----12/14/12--------------------------------------|
B|--9--10--12--------x8-----------14p12--------------------------------|
G|--------------------------------------13h14--------------------------|
D|---------------------------------------------------------------------|
A|---------------------------------------------------------------------|
E|---------------------------------------------------------------------|


That should be about it. The solo at 2:35 has weird timing so just keep toying around 
with it. If there's any problems or fixes e-mail me at upflup@gmail.com
Tap to rate this tab
# A B C D E F G H I J K L M N O P Q R S T U V W X Y Z