Song name
# A B C D E F G H I J K L M N O P Q R S T U V W X Y Z

Say Anything - Try To Remember Forget Acoustic chords

This is the acoustic version of Try To Remeber, Forget from the 7" split with Eisley.
I haven't shown any strumming patterns, but you can hear the song here to figure it out 
https://www.youtube.com/watch?v=ixFemqj-hcc

Intro
|-------------------------------|
|-------------------------------|
|-------------------------------|
|---------9-6~----------9~------|
|--7/9/7--7-7~---7/9/7--7~------|
|-----------------------5~------| X2

Verse
|----------------|
|----------------|
|-9--9---6-------|
|-9--9---7-------|
|-7--6---7-------|
|--------5-------|

Chorus
|-----------|-------------------|
|-----------|-------------------|
|-9--8--8---|-------------------|
|-7--9--9---|-9~----9--9--------|
|-9--x--x---|-7~----7--6--------|
|----9--7---|-5~----5--7--------|
          x3
Interlude
|---------------|
|---------------|
|---------------|
|-9--9----------|
|-7--6----------|
|-5--7----------|

Outro
|---------------|
|---------------|
|---------------|
|--------9-6~---|
|-7/9/7--7-7~---|
|---------------|

Order:
Intro
verse x2
chorus
verse X4
Chorus
Interlude x6
verse x2
chorus
Outro


NOTE: Bemis is strumming the B and e strings open during most of the song, I didn't note
that because it looked messy, but here's a head's up
Tap to rate this tab
# A B C D E F G H I J K L M N O P Q R S T U V W X Y Z