Guitaretab - guitar tabs
Song name
# A B C D E F G H I J K L M N O P Q R S T U V W X Y Z

Say Anything - Little Girls tab

Little Girls-  Say Anything
This song can be very fun to play with two
guitars. Although the lyrics are disturbing. :P


Intro

Guitar 1
e--2-/3333333--2-/-3333333--2-/333----2-/-333----2-/-3333--3---|
B--2-/3333333--2-/-3333333--2-/333----2-/-333----2-/-3333--3---|
G--------------------------------------------------------------|
D--------------------------------------------------------------|
A--------------------------------------------------------------|
E--------------------------------------------------------------|



Guitar 2

e-------------|------------------------|------------------------|
B-------------|------------------------|------------------------|
G-16--11--12--|--16------11-----9------|---16-----11------12----|
D-x---x---x---|--x-------x------x------|---x------x-------x-----|
A-14--9---10--|--14------9------7------|---14-----9-------10----|
E-------------|------------------------|------------------------|
  8   16   8     8      16      8          8      16      1          *Amount of Times Strummed*

Guitar 1

e------------------------------------|
B------------------------------------|
G------------------------------------|
D----------9------4-------7-----5----| 
A---5------7------2-------5-----3----| 
E---3--------------------------------|
      
    8      8      4       4      8 and 1 time at the end.

Verse 1
Guitar 1
e---------------------------------------|
B---------------------------------------|
G---------------------------11-/--12----|  
D-----------4---5-----------x--/---x----|  
A----5------2---3-----5-----9--/--10----|
E----3----------------3-----------------|
     8      4    4    8     1      7  I kill, kill, kill little girls....

Guitar 2
e-------------------------------------|
B-------------------------------------|
G-------------------------------------| 4x Again, easy to figure out.
D----------4----5---------------------|  Counting is the same as Guitar 1
A---3------2-----3----5---4-/-5-------|
E---5---------------3-----2-/-3-------|
Chorus

Guitar 1and 2

e--------------------------|----------------------------|
B--------------------------|----------------------------|
G--------------------------|----------------------------|
D---------5----------------|----------------------------| 
A---2-----3----5------7----|-----7-----10-------12------|
E---------x----3------5----|-----5------8-------10------|
 Listen to song for strumming pattern, and when to switch! 

e---------------------------|
B---------------------------|
G---------------------------|
D---------------------------|  1x then go to verse 2
A----7-----10----12---------|
E----5------8----10---------|
     16     8     8      Strum up and down here....Itís easy, and it sounds cooler...


Verse 2
Guitar 1
e-----------------------------------|
B-----------------------------------|
G-------------------------11-/-12---|  4x 
D-----------4---5---------x--/-x----|  Played along with guitar 2.
A----5------2---3---5-----9--/-10---|
E----3--------------3---------------|
     8      4    4    8   1    7            .........I hate, hate, hate what you are..... 
[ Tab from: http://www.guitaretab.com/s/say-anything/69998.html ]
Guitar 2
e--------------------------------------|
B--------------------------------------|
G--------------------------------------| 4x Again, easy to figure out.
D----------4----5----------------------|  Counting is the same as Guitar 1
A---3------2----3----5---4-/-5---------|
E---5----------------3---2-/-3---------|


Chorus

Guitar 1and 2

e--------------------------|-------------------------|
B--------------------------|-------------------------|
G--------------------------|-------------------------|
D---------5----------------|-------------------------|  
A---2-----3----5------7----|-----7-----10------12----|
E---------x----3------5----|-----5------8------10----|
       Listen to song for strumming pattern, and when to switch! 



e---------------------------|
B---------------------------|
G---------------------------| 2 times....
D---------------------------|
A----7-----10----12---------|
E----5------8----10---------|
    16      8     8  

e-----------------------------|
B-----------------------------| ......Last twelve hours of my day....
G-----------------------------|
D-----5-------------7---------|
A-----3------2------5---------|
E-----x-------------x---------|

e-------------------------|-----------------------|
B-------------------------|-----------------------|
G-------------------------|-----------------------| 
D---9-----5---------------|--9----5---------------|...Iím a psycho..
A---7-----3----5------7---|--7----3----5-----5----|
E--------------3------5---|------------3-----7----|

Chorus

Guitar 1and 2

e-----------------------|-------------------|
B-----------------------|-------------------|
G-----------------------|-------------------|
D---------5-------------|-------------------| 
A---2-----3----5---7----|---7---10----12----|
E---------x----3---5----|---5----8----10----|
       Listen to song for strumming pattern, and when to switch! 

Guitar 1
e------------------------|
B------------------------|
G------------------------| 3 times....
D------------------------|
A----7-----10----12------|
E----5------8----10------|
     16     8     8  

Guitar 2

e---------------|-----------------|-----------------------------------|
B---------------|-----------------|-----------------------------------|
G---------------|-----------------|------9------11----12-----14-------|
D---------------|-----------------|-----------------------------------|
A--7--10--12----|---7---10---12---|------7-------9-----10-----12------|
E--5---8--10----|---5----8---10---|-----------------------------------|
  16   8   8                             12      4      8      8


Guitar 2

e-----¨------|-----------------|--------------------------|
B------------|-----------------|--------------------------|
G-16--11-12--|--16----11---9---|---16-----11----12--------|
D--x---x--x--|--x-----x----x---|---x------x------x--------|
A-14---9-10--|--14----9----7---|---14-----9-----10--------|
E------------|-----------------|---------------------------|
  8   16  8     8    16    8       8     16     1          
*Amount of Times Strummed*

Guitar 1

e---------------------------------|
B---------------------------------|
G---------------------------------|
D----------9------4-------7-----5-| 
A---5------7------2-------5-----3-| 
E---3-----------------------------|
      
    8      8      4       4     8 and 1 time at the end.

Should be the end of the song, if itís messed up just let me know.




Related for Little Girls tab