Song name
# A B C D E F G H I J K L M N O P Q R S T U V W X Y Z

Say Anything - Alive With The Glory Of Love Acoustic tab

Help us improve GuitareTab! Take a short survey!
    I've tabed out the whole song so you wont have to piece it together you can just 
straight through it. What helped me to actually learn this song was by listening to the 
version on MTV.com:

http://www.mtv.com/music/#/music/live/detail.jhtml?contentId=1525316

Trying to learn from the cd version i found to be much harder. Try learning it in 
don't try to play straight through. break it down itno easy to learn sections. I tried making 
as clear and easy as possible.
Good Luck.

Mute String - x
Palm Mute   - +
Up Stroke   - ^

Intro:

e ------0------|
B ------0------|
G ------7------|   Let This Ring Out
D ------6------|
A ------7------|
E ------0------|

Verse: There is some fancy strumming you will have to figure out.

e -----------------------------------------------------|
B -----------------------------------------------------|
G ------7-7-7-7--6-6-6-6-6-6-6---6-6-6-6-6-6-6-6-6-6-6-|
D ------7-7-7-7--7-7-7-7-7-7-7---7-7-7-7-7-7-7-7-7-7-7-|
A ------x-x-x-x--x-x-x-x-x-x-x---5-5-5-5-5-5-5-5-5-5-5-|
E ------7-7-7-7--7-7-7-7-7-7-7-------------------------|

e -----------------------------------------------------|
B ------------------------------9-9-9-9-9-9-9-9-9-9-9--|
G ------6-6-6-6-6-6-6-6-6-6-6---9-9-9-9-9-9-9-9-9-9-9--|
D ------x-x-x-x-x-x-x-x-x-x-x---9-9-9-9-9-9-9-9-9-9-9--|
A ------7-7-7-7-7-7-7-7-7-7-7---7-7-7-7-7-7-7-7-7-7-7--|
E ------5-5-5-5-5-5-5-5-5-5-5--------------------------|

e -----------------------------------------------------|
B -----------------------------------------------------|
G ------7-7-7-7--6-6-6-6-6-6-6---6-6-6-6-6-6-6-6-6-6-6-|
D ------7-7-7-7--7-7-7-7-7-7-7---7-7-7-7-7-7-7-7-7-7-7-|
A ------x-x-x-x--x-x-x-x-x-x-x---5-5-5-5-5-5-5-5-5-5-5-|
E ------7-7-7-7--7-7-7-7-7-7-7-------------------------|

e ------------------------------------------------------|
B ------------------------------------------------------|
G ------9-9-9-9-9-9-9-9-9-9-9---9-9-9-9---9-9-9-9-9-9-9-|
D ------7-7-7-7-7-7-7-7-7-7-7---9-9-9-9---6-6-6-6-6-6-6-|
A ------9-9-9-9-9-9-9-9-9-9-9---7-7-7-7---7-7-7-7-7-7-7-|
E ------------------------------------------------------|

e -----------------------------------------------------|
B -----------------------------------------------------|
G ------7-7-7-7--6-6-6-6-6-6-6---6-6-6-6-6-6-6-6-6-6-6-|
D ------7-7-7-7--7-7-7-7-7-7-7---7-7-7-7-7-7-7-7-7-7-7-|
A ------x-x-x-x--x-x-x-x-x-x-x---5-5-5-5-5-5-5-5-5-5-5-|
E ------7-7-7-7--7-7-7-7-7-7-7-------------------------|

e -----------------------------------------------------|
B ------------------------------9-9-9-9-9-9-9-9-9-9-9--|
G ------6-6-6-6-6-6-6-6-6-6-6---9-9-9-9-9-9-9-9-9-9-9--|
D ------x-x-x-x-x-x-x-x-x-x-x---9-9-9-9-9-9-9-9-9-9-9--|
A ------7-7-7-7-7-7-7-7-7-7-7---7-7-7-7-7-7-7-7-7-7-7--|
E ------5-5-5-5-5-5-5-5-5-5-5--------------------------|

e -----------------------------------------------------|
B -----------------------------------------------------|
G ------7-7-7-7--6-6-6-6-6-6-6---6-6-6-6-6-6-6-6-6-6-6-|
D ------7-7-7-7--7-7-7-7-7-7-7---7-7-7-7-7-7-7-7-7-7-7-|
A ------x-x-x-x--x-x-x-x-x-x-x---5-5-5-5-5-5-5-5-5-5-5-|
E ------7-7-7-7--7-7-7-7-7-7-7-------------------------|

e ------------------------------------------|
B ------------------------------------------|
G ------9-9-9-9-9-9-9-9-9-9-9---9-9-9-9---9-| Stop Abruptly
D ------7-7-7-7-7-7-7-7-7-7-7---9-9-9-9---6-|
A ------9-9-9-9-9-9-9-9-9-9-9---7-7-7-7---7-|
E ------------------------------------------|

Chorus:

e ------------------------------------------------------------------------|
B ------------------------------------------------------------------------|
G ------9-9-9-9-9-9-9---9-9-9-9-9-9-9---9-9-9---9-9-9-9---7-7-7---6-6-6-6-|
D ------7-7-7-7-7-7-7---7-7-7-7-7-7-7---9-9-9---6-6-6-6---7-7-7---7-7-7-7-|
A ------5-5-5-5-5-5-5---9-9-9-9-9-9-9---7-7-7---7-7-7-7---x-x-x---x-x-x-x-|
E ------0-0-0-0-0-0-0-------------------0-0-0---0-0-0-0---7-7-7---7-7-7-7-|

e ------------------------------------------------------------------------|
B ------------------------------------------------------------------------|
G ------9-9-9-9-9-9-9---9-9-9-9-9-9-9---9-9-9---9-9-9-9---7-7-7---6-6-6-6-|
D ------7-7-7-7-7-7-7---7-7-7-7-7-7-7---9-9-9---6-6-6-6---7-7-7---7-7-7-7-|
A ------5-5-5-5-5-5-5---9-9-9-9-9-9-9---7-7-7---7-7-7-7---x-x-x---x-x-x-x-|
E ------0-0-0-0-0-0-0-------------------0-0-0---0-0-0-0---7-7-7---7-7-7-7-|

Verse: There is some fancy strumming.

e -----------------------------------------------------|
B -----------------------------------------------------|
G ------7-7-7-7--6-6-6-6-6-6-6---6-6-6-6-6-6-6-6-6-6-6-|
D ------7-7-7-7--7-7-7-7-7-7-7---7-7-7-7-7-7-7-7-7-7-7-|
A ------x-x-x-x--x-x-x-x-x-x-x---5-5-5-5-5-5-5-5-5-5-5-|
E ------7-7-7-7--7-7-7-7-7-7-7-------------------------|

e ----------------------------------|
B ------------------------------9---|
G ------6-6-6-6-6-6-6-6-6-6-6---9---| Stop Abruptly
D ------x-x-x-x-x-x-x-x-x-x-x---9---|
A ------7-7-7-7-7-7-7-7-7-7-7---7---|
E ------5-5-5-5-5-5-5-5-5-5-5-------|

The strum pattern actualy changes here, you hit the first four chords and let them ring 
for the last 7 do the cool fancy thing.


e -----------------------------------------------------|
B -----------------------------------------------------|
G ------7-7-7-7--6-6-6-6-6-6-6---6-6-6-6-6-6-6-6-6-6-6-|
D ------7-7-7-7--7-7-7-7-7-7-7---7-7-7-7-7-7-7-7-7-7-7-|
A ------x-x-x-x--x-x-x-x-x-x-x---5-5-5-5-5-5-5-5-5-5-5-|
E ------7-7-7-7--7-7-7-7-7-7-7-------------------------|

e -----------------------------------------------------|
B ------------------------------9-9-9-9-9-9-9-9-9-9-9--|
G ------6-6-6-6-6-6-6-6-6-6-6---9-9-9-9-9-9-9-9-9-9-9--|
D ------x-x-x-x-x-x-x-x-x-x-x---9-9-9-9-9-9-9-9-9-9-9--|
A ------7-7-7-7-7-7-7-7-7-7-7---7-7-7-7-7-7-7-7-7-7-7--|
E ------5-5-5-5-5-5-5-5-5-5-5--------------------------|

e -----------------------------------------------------|
B -----------------------------------------------------|
G ------7-7-7-7--6-6-6-6-6-6-6---6-6-6-6-6-6-6-6-6-6-6-|
D ------7-7-7-7--7-7-7-7-7-7-7---7-7-7-7-7-7-7-7-7-7-7-|
A ------x-x-x-x--x-x-x-x-x-x-x---5-5-5-5-5-5-5-5-5-5-5-|
E ------7-7-7-7--7-7-7-7-7-7-7-------------------------|

e ------------------------------------------------------|
B ------------------------------------------------------|
G ------9-9-9-9-9-9-9-9-9-9-9---9-9-9-9---9-9-9-9-9-9-9-|
D ------7-7-7-7-7-7-7-7-7-7-7---9-9-9-9---6-6-6-6-6-6-6-|
A ------9-9-9-9-9-9-9-9-9-9-9---7-7-7-7---7-7-7-7-7-7-7-|
E ------------------------------------------------------|

e -----------------------------------------------------------------|
B ------------------------------------------9-9-9-9-9-9-9-9-9-9-9--|
G ------7---7-7-----6---6-6-----6---6-6-----9-9-9-9-9-9-9-9-9-9-9--|
D ------7---7-7-----7---7-7-----x---x-x-----9-9-9-9-9-9-9-9-9-9-9--|
A ------x---x-x-----5---5-5-----7---7-7-----7-7-7-7-7-7-7-7-7-7-7--|
E ------7---7-7-----------------5---5-5----------------------------|
            ^ ^         ^ ^         ^ ^

e -----------------------------------------------------|
B -----------------------------------------------------|
G ------7-7-7-7--6-6-6-6-6-6-6---6-6-6-6-6-6-6-6-6-6-6-|
D ------7-7-7-7--7-7-7-7-7-7-7---7-7-7-7-7-7-7-7-7-7-7-|
A ------x-x-x-x--x-x-x-x-x-x-x---5-5-5-5-5-5-5-5-5-5-5-|
E ------7-7-7-7--7-7-7-7-7-7-7-------------------------|
PALM    + + + +  + + + + + + +   + + + + + + + + + + +
MUTE

e ------------------------------------------|
B ------------------------------------------|
G ------9-9-9-9-9-9-9-9-9-9-9---9-9-9-9---9-| Stop Abruptly
D ------7-7-7-7-7-7-7-7-7-7-7---9-9-9-9---6-|
A ------9-9-9-9-9-9-9-9-9-9-9---7-7-7-7---7-|
E ------------------------------------------|

Chorus:

e ------------------------------------------------------------------------|
B ------------------------------------------------------------------------|
G ------9-9-9-9-9-9-9---9-9-9-9-9-9-9---9-9-9---9-9-9-9---7-7-7---6-6-6-6-|
D ------7-7-7-7-7-7-7---7-7-7-7-7-7-7---9-9-9---6-6-6-6---7-7-7---7-7-7-7-|
A ------5-5-5-5-5-5-5---9-9-9-9-9-9-9---7-7-7---7-7-7-7---x-x-x---x-x-x-x-|
E ------0-0-0-0-0-0-0-------------------0-0-0---0-0-0-0---7-7-7---7-7-7-7-|

e -------------------------------------------------------|
B -------------------------------------------------------|
G ------9-9-9-9-9-9-9---9-9-9-9-9-9-9---9-9-9---9-9-9-9--|
D ------7-7-7-7-7-7-7---7-7-7-7-7-7-7---9-9-9---6-6-6-6--|
A ------5-5-5-5-5-5-5---9-9-9-9-9-9-9---7-7-7---7-7-7-7--|
E ------0-0-0-0-0-0-0-------------------0-0-0---0-0-0-0--|

e ------------------------------|
B ------------------------------|
G ------7--7--7---6--6--6--6----| Slow These stums down
D ------7--7--7---7--7--7--7----|
A ------x--x--x---x--x--x--x----|
E ------7--7--7---7--7--7--7----|

Bridge 1:

e -------------------------------------------------------------------|
B -------------------------------------------------------------------|
G ------6-6-6-6---6-6-6-6-6-6-6-6-6----6-6-6-6-6-6-6---6-6-6---6-6-6-|
D ------x-x-x-x---7-7-7-7-7-7-7-7-7----7-7-7-7-7-7-7---7-7-7---7-7-7-|
A ------7-7-7-7---5-5-5-5-5-5-5-5-5----5-5-5-5-5-5-5---5-5-5---5-5-5-|
E ------5-5-5-5------------------------------------------------------|

e -------------------------------------------------------------------|
B -------------------------------------------------------------------|
G ------6-6-6-6-6-6-6---6---6-6-6-6-6-6-6---6---6-6-6-6-6-6-6---6----|
D ------7-7-7-7-7-7-7-------7-7-7-7-7-7-7-------7-7-7-7-7-7-7--------|
A ------5-5-5-5-5-5-5-------5-5-5-5-5-5-5-------5-5-5-5-5-5-5--------|
E -------------------------------------------------------------------|

e -------------------------|
B -------------------------|
G ------6-6-6--6--6-6-6--6-|
D ------7-7-7-----7-7-7----|
A ------5-5-5-----5-5-5----|
E -------------------------|

e -------------------------------------------------------------------|
B -------------------------------------------------------------------|
G ------6-6-6-6-6-6-6---6---6-6-6-6-6-6-6---6---6-6-6-6-6-6-6---6----|
D ------7-7-7-7-7-7-7-------7-7-7-7-7-7-7-------7-7-7-7-7-7-7--------|
A ------5-5-5-5-5-5-5-------5-5-5-5-5-5-5-------5-5-5-5-5-5-5--------|
E -------------------------------------------------------------------|

e -------------------------------------------|
B -------------------------------------------|
G ------6-6-6--6--6-6-6---x-x-x-x-x-x-x------|
D ------7-7-7-----7-7-7---x-x-x-x-x-x-x------|
A ------5-5-5-----5-5-5---x-x-x-x-x-x-x------|
E -------------------------------------------|

Bridge 2:

e -------------------------------------------------------|
B -------------------------------------------------------|
G ------7-7-7-7--6-6-6-6-6-6---6-6-6-6-6-6-6-6----6---4--|
D ------7-7-7-7--7-7-7-7-7-7---7-7-7-7-7-7-7-7----6---4--|
A ------x-x-x-x--x-x-x-x-x-x---5-5-5-5-5-5-5-5----4---2--|
E ------7-7-7-7--7-7-7-7-7-7---5-5-5-5-5-5-5-5----4---2--|

e ----------------------------------0--|
B ----------------------------------0--|
G ------6-6-6-6-6-6-6-6----5---3----1--| Let the last chord Ring out
D ------7-7-7-7-7-7-7-7----6---4----2--|
A ------7-7-7-7-7-7-7-7----6---4----2--|
E ------5-5-5-5-5-5-5-5----4---2----0--|

Verse 2:

e --------------------------------|
B ---------------------------9-9--|
G ------7-7----6-6----6-6----9-9--|
D ------7-7----7-7----x-x----9-9--|
A ------x-x----5-5----7-7----7-7--|
E ------7-7-----------5-5---------|

e ---------------------------------------------------------------|
B ---------------------------------------------------------------|
G ------7-7--6-6---6-6--6-6---9-9--9-9---9-9-9-9--9-9-9-9-9-9-9--|
D ------7-7--7-7---7-7--7-7---7-7--7-7---9-9-9-9--6-6-6-6-6-6-6--|
A ------x-x--x-x---5-5--5-5---9-9--9-9---7-7-7-7--7-7-7-7-7-7-7--|
E ------7-7--7-7-------------------------------------------------|

e -----------------------------------------------------|
B -----------------------------------------------------|
G ------7-7-7-7--6-6-6-6-6-6-6---6-6-6-6-6-6-6-6-6-6-6-|
D ------7-7-7-7--7-7-7-7-7-7-7---7-7-7-7-7-7-7-7-7-7-7-|
A ------x-x-x-x--x-x-x-x-x-x-x---5-5-5-5-5-5-5-5-5-5-5-|
E ------7-7-7-7--7-7-7-7-7-7-7-------------------------|

e -----------------------------------------------------|
B ------------------------------9-9-9-9-9-9-9-9-9-9-9--|
G ------6-6-6-6-6-6-6-6-6-6-6---9-9-9-9-9-9-9-9-9-9-9--|
D ------x-x-x-x-x-x-x-x-x-x-x---9-9-9-9-9-9-9-9-9-9-9--|
A ------7-7-7-7-7-7-7-7-7-7-7---7-7-7-7-7-7-7-7-7-7-7--|

e -----------------------------------------------------|
B -----------------------------------------------------|
G ------7-7-7-7--6-6-6-6-6-6-6---6-6-6-6-6-6-6-6-6-6-6-|
D ------7-7-7-7--7-7-7-7-7-7-7---7-7-7-7-7-7-7-7-7-7-7-|
A ------x-x-x-x--x-x-x-x-x-x-x---5-5-5-5-5-5-5-5-5-5-5-|
E ------7-7-7-7--7-7-7-7-7-7-7-------------------------|

e -------------------------------------------------------|
B -------------------------------------------------------|
G ------9-9-9-9-9-9-9-9-9-9-9---9-9-9-9---9-9-9-9-9-9-9--|
D ------7-7-7-7-7-7-7-7-7-7-7---9-9-9-9---6-6-6-6-6-6-6--|
A ------9-9-9-9-9-9-9-9-9-9-9---7-7-7-7---7-7-7-7-7-7-7--|
E -------------------------------------------------------|

Chorus:

e --------------------------------------------|
B --------------------------------------------|
G ------9-9----9-9----9-9----7-7-7---6-6-6-6--|
D ------7-7----7-7----9-9----7-7-7---7-7-7-7--|
A ------5-5----9-9----7-7----x-x-x---x-x-x-x--|
E ------0-0-----------0-0----7-7-7---7-7-7-7--|

e ------------------------------------------------------------------------|
B ------------------------------------------------------------------------|
G ------9-9-9-9-9-9-9---9-9-9-9-9-9-9---9-9-9---9-9-9-9---7-7-7---6-6-6-6-|
D ------7-7-7-7-7-7-7---7-7-7-7-7-7-7---9-9-9---6-6-6-6---7-7-7---7-7-7-7-|
A ------5-5-5-5-5-5-5---9-9-9-9-9-9-9---7-7-7---7-7-7-7---x-x-x---x-x-x-x-|
E ------0-0-0-0-0-0-0-------------------0-0-0---0-0-0-0---7-7-7---7-7-7-7-|
e ------------------------------------------------------------------------|
B ------------------------------------------------------------------------|
G ------9-9-9-9-9-9-9---9-9-9-9-9-9-9---9-9-9---9-9-9-9---7-7-7---6-6-6-6-|
D ------7-7-7-7-7-7-7---7-7-7-7-7-7-7---9-9-9---6-6-6-6---7-7-7---7-7-7-7-|
A ------5-5-5-5-5-5-5---9-9-9-9-9-9-9---7-7-7---7-7-7-7---x-x-x---x-x-x-x-|
E ------0-0-0-0-0-0-0-------------------0-0-0---0-0-0-0---7-7-7---7-7-7-7-|

Outro:

e -----------------------|
B -----------------------|
G ------7-7-7---6-6-6-6--|
D ------7-7-7---7-7-7-7--|
A ------x-x-x---x-x-x-x--|
E ------7-7-7---7-7-7-7--|

e ---------|
B ---------|
G ------6--| Let Ring
D ------7--|
A ------5--|
E ---------|
Related for Alive With The Glory Of Love Acoustic tab