Song name
# A B C D E F G H I J K L M N O P Q R S T U V W X Y Z

Say Anything - Alive With The Glory Of Love tab

Say Anything - Alive With The Glory of Love Guitar Tab
Tabbed By James Paiva
Email: drkl5@hotmail.com

I Tried My Best To Tab Out This Song And This is Close To I Got So Far, Both Lead And 
The Rhythm Might Be A Lil off So Try To Figure Out The Rhythm Yourself. =( Any Questions 
Anything, Contact My Email.

Tuning: Standard (E A D G B e)

Intro (0:00)

Both Guitars:
E|-0000000000--0000000000--------------0000000000-|
B|-0000000000--0000000000--------------0000000000-|
G|-7777777777--7777777777--777---------7777777777-|
D|-6666666666--6666666666-----666---6--6666666666-|
A|-7777777777--7777777777--------777---7777777777-|
E|-0000000000--0000000000--------------0000000000-|

(0:07)
E|-0----------0-----------0-----------0000000-----|
B|-0----------0-----------0-----------0000000-----|
G|-7----------7-----------7-----------7777777----/|
D|-6----------6-----------6-----------6666666----/|
A|-7----------7-----------7-----------7777777----/|
E|-0----------0-----------0-----------0000000-----|

Verse

Left Guitar: (0:17)
E|-----------------------------------|-----------------------------------|
B|-3-3-3--2-2-22-2--2-2-2--2-2-22222-|-2-2-2--2-2-22-3--9-9-9--9-9-99999-|
G|-2-2-2--2-2-22-2--2-2-2--2-2-22222-|-2-2-2--2-2-22-2--9-9-9--9-9-99999-|
D|-x-x-x--x-x-xx-x--0-0-0--0-0-00000-|-2-2-2--2-2-22-2--9-9-9--9-9-99999-|
A|-2-2-2--2-2-22-2-------------------|-0-0-0--0-0-00-0--7-7-7--7-7-77777-|
E|-----------------------------------|-----------------------------------|


E|-----------------------------------|-2-2-2--2-2-22-2-------------------|
B|-3-3-3--2-2-22-2--2-2-2--2-2-22222-|-2-2-2--2-2-22-2--9-9-9--9-9-99999-|
G|-2-2-2--2-2-22-2--2-2-2--2-2-22222-|-2-2-2--2-2-22-2--9-9-9--9-9-99999-|
D|-x-x-x--x-x-xx-x--0-0-0--0-0-00000-|-4-4-4--4-4-44-4--9-9-9--9-9-99999-|
A|-2-2-2--2-2-22-2-------------------|-4-4-4--4-4-44-4--7-7-7--7-7-77777-|
E|-----------------------------------|------------------0-0-0--0-0-00000-|


Right Guitar: (0:27)
E|-----5------5------|
B|-5-7----5-7----7-5-|
G|-------------------|
D|-------------------|x2
A|-------------------|
E|-------------------|


E|-----5------5--7-7--5-5-7/9-7-5-7-|
B|-5-7----5-7-----------------------|
G|----------------------------------|
D|----------------------------------|
A|----------------------------------|
E|----------------------------------|

Both Guitars: (0:36)
E|-----------------------------------|-----------------------------------|
B|-3-3-3--2-2-22-2--2-2-2--2-2-22222-|-2-2-2--2-2-22-3--9-9-9--9-9-99999-|
G|-2-2-2--2-2-22-2--2-2-2--2-2-22222-|-2-2-2--2-2-22-2--9-9-9--9-9-99999-|
D|-x-x-x--x-x-xx-x--0-0-0--0-0-00000-|-2-2-2--2-2-22-2--9-9-9--9-9-99999-|
A|-2-2-2--2-2-22-2-------------------|-0-0-0--0-0-00-0--7-7-7--7-7-77777-|
E|-----------------------------------|-----------------------------------|


E|-----------------------------------|
B|-3-3-3--2-2-22-2--2-2-2--2-2-22222-|
G|-2-2-2--2-2-22-2--2-2-2--2-2-22222-|
D|-x-x-x--x-x-xx-x--0-0-0--0-0-00000-|
A|-2-2-2--2-2-22-2-------------------|
E|-----------------------------------|


Left Guitar:
E|-----------------------------------|
B|-----------------------------xxxxx-|
G|-----------------------------xxxxx-|
D|-----------------------------xxxxx-|
A|-----------------------------xxxxx-|
E|-----------------------------------|


Right Guitar:
E|-----------------------------5-5---|
B|-----5-5-----5-5-----5-5-----5-5---|
G|---------------------------4-------|
D|-4-4-----4-4-----4-4-----4-4-------|
A|-----------------------------------|
E|-----------------------------------|


Chorus

Left Guitar:
E|----------------------------------------|--------------------|
B|-2-2--222--2-2-2222--2-2--222--2-2-2222-|-9-9--999--9-9-999--|
G|-2-2--222--2-2-2222--2-2--222--2-2-2222-|-9-9--999--9-9-999--|
D|-0-0--000--0-0-0000--4-4--444--4-4-4444-|-9-9--999--9-9-999--|
A|---------------------4-4--444--4-4-4444-|-7-7--777--7-7-777--|
E|----------------------------------------|--------------------|

E|-----------------|
B|-3-3-2-2-3-3-2-2-|
G|-2-2-2-2-2-2-2-2-|
D|-x-x-x-x-x-x-x-x-|x2
A|-2-2-2-2-2-2-0-0-|
E|-----------------|


Right Guitar:
E|-5-5--555--5-5-5555--5-5--555--5-5-5555-5-5--555--5-5-5555--|
B|-5-5--555--5-5-5555--5-5--555--5-5-5555-5-5--555--5-5-5555--|
G|------------------------------------------------------------|
D|------------------------------------------------------------|
A|------------------------------------------------------------|
E|------------------------------------------------------------|

E|-5-5-5-5-7-7-5-5--|
B|-5-5-5-5-5-5-5-5--|
G|------------------|
D|------------------|x2
A|------------------|
E|------------------|


Verse

Left Guitar:
E|-----------------------------------|-----------------------------------|
B|-3-3-3--2-2-22-2--2-2-2--2-2-22222-|-2-2-2--2-2-22-3--9-9-9--9-9-99999-|
G|-2-2-2--2-2-22-2--2-2-2--2-2-22222-|-2-2-2--2-2-22-2--9-9-9--9-9-99999-|
D|-x-x-x--x-x-xx-x--0-0-0--0-0-00000-|-2-2-2--2-2-22-2--9-9-9--9-9-99999-|
A|-2-2-2--2-2-22-2-------------------|-0-0-0--0-0-00-0--7-7-7--7-7-77777-|
E|-----------------------------------|-----------------------------------|


E|-----------------------------------|-2-2-2--2-2-22-2-------------------|
B|-3-3-3--2-2-22-2--2-2-2--2-2-22222-|-2-2-2--2-2-22-2--9-9-9--9-9-99999-|
G|-2-2-2--2-2-22-2--2-2-2--2-2-22222-|-2-2-2--2-2-22-2--9-9-9--9-9-99999-|
D|-x-x-x--x-x-xx-x--0-0-0--0-0-00000-|-4-4-4--4-4-44-4--9-9-9--9-9-99999-|
A|-2-2-2--2-2-22-2-------------------|-4-4-4--4-4-44-4--7-7-7--7-7-77777-|
E|-----------------------------------|------------------0-0-0--0-0-00000-|


Right Guitar:
E|---------------------------------------------------------------------|
B|---------------------------------------------------------------------|
G|-6--7-7-6-7--6-6-6--7-7-6-7--6h7-7-7--6-6-4-6--6h7--6--6h76-4-4-2-4/-|
D|---------------------------------------------------------------------|
A|---------------------------------------------------------------------|
E|---------------------------------------------------------------------|


Both Guitars:
E|-----------------------------------|-----------------------------------|
B|-3-3-3--2-2-22-2--2-2-2--2-2-22222-|-2-2-2--2-2-22-3--9-9-9--9-9-99999-|
G|-2-2-2--2-2-22-2--2-2-2--2-2-22222-|-2-2-2--2-2-22-2--9-9-9--9-9-99999-|
D|-x-x-x--x-x-xx-x--0-0-0--0-0-00000-|-2-2-2--2-2-22-2--9-9-9--9-9-99999-|
A|-2-2-2--2-2-22-2-------------------|-0-0-0--0-0-00-0--7-7-7--7-7-77777-|
E|-----------------------------------|-----------------------------------|


E|-----------------------------------|-2-2-2--2-2-22-2-------------------|
B|-3-3-3--2-2-22-2--2-2-2--2-2-22222-|-2-2-2--2-2-22-2--9-9-9--9-9-99999-|
G|-2-2-2--2-2-22-2--2-2-2--2-2-22222-|-2-2-2--2-2-22-2--9-9-9--9-9-99999-|
D|-x-x-x--x-x-xx-x--0-0-0--0-0-00000-|-4-4-4--4-4-44-4--9-9-9--9-9-99999-|
A|-2-2-2--2-2-22-2-------------------|-4-4-4--4-4-44-4--7-7-7--7-7-77777-|
E|-----------------------------------|------------------0-0-0--0-0-00000-|


Both Guitars:
E|-----------------------------------|-----------------------------------|
B|-3---3----2-22-2--3---3----2-22222-|-2---2----2-22-2--9-9-9--9-9-99999-|
G|-----------------------------------|------------------9-9-9--9-9-99999-|
D|--------------------0----0---------|----------2-22-2--9-9-9--9-9-99999-|
A|---2----2--------------------------|---0----0---------7-7-7--7-7-77777-|
E|-----------------------------------|-----------------------------------|


E|---------------------------------|
B|-3-3-2-2-3-3-2-2-3-3-2-2-3-3-2-2-|
G|-2-2-2-2-2-2-2-2-2-2-2-2-2-2-2-2-|
D|---------------------------------|
A|---------------------------------|
E|---------------------------------|
   . . . . . . . . . . . . . . . .


Left Guitar:
E|-2-2-2-2-2-2-2-2--------------------|
B|-2-2-2-2-2-2-2-2-9-9-9-9-9-9-xxxxxx-|
G|-2-2-2-2-2-2-2-2-9-9-9-9-9-9-xxxxxx-|
D|-4-4-4-4-4-4-4-4-9-9-9-9-9-9-xxxxxx-|
A|-4-4-4-4-4-4-4-4-7-7-7-7-7-7-xxxxxx-|
E|-----------------0-0-0-0-0-0--------|


Right Guitar:
E|-----------------------------xxxxxx-|
B|-----5-5-----5-5-----5-5-----xxxxxx-|
G|---------------------------4-xxxxxx-|
D|-4-4-----4-4-----4-4-----4-4-xxxxxx-|
A|-----------------------------xxxxxx-|
E|-----------------------------xxxxxx-|


Chorus


Left Guitar:
E|----------------------------------------|--------------------|
B|-2-2--222--2-2-2222--2-2--222--2-2-2222-|-9-9--999--9-9-999--|
G|-2-2--222--2-2-2222--2-2--222--2-2-2222-|-9-9--999--9-9-999--|
D|-0-0--000--0-0-0000--4-4--444--4-4-4444-|-9-9--999--9-9-999--|
A|---------------------4-4--444--4-4-4444-|-7-7--777--7-7-777--|
E|----------------------------------------|--------------------|

E|-----------------|
B|-3-3-2-2-3-3-2-2-|
G|-2-2-2-2-2-2-2-2-|
D|-x-x-x-x-x-x-x-x-|x2
A|-2-2-2-2-2-2-0-0-|
E|-----------------|


Right Guitar:
E|-5-5--555--5-5-5555--5-5--555--5-5-5555-5-5--555--5-5-5555--|
B|-5-5--555--5-5-5555--5-5--555--5-5-5555-5-5--555--5-5-5555--|
G|------------------------------------------------------------|
D|------------------------------------------------------------|
A|------------------------------------------------------------|
E|------------------------------------------------------------|

E|-5-5-5-5-7-7-5-5--|
B|-5-5-5-5-5-5-5-5--|
G|------------------|
D|------------------|x2
A|------------------|
E|------------------|


Bridge:


Left Guitar
E|--------------------------------------------------|
B|----------7-----------7-----7-----7-----------7---|
G|-666666666666666666666666666666666666666666666666-|
D|-777777777777777777777777777777777777777777777777-|x2
A|--------------------------------------------------|
E|--------------------------------------------------|

E|------------------------------------------|
B|-----------------------------xxxxxxxxxxxx-|
G|-6666666--6666666--666--666--xxxxxxxxxxxx-|
D|-7777777--7777777--777--777--xxxxxxxxxxxx-|
A|-----------------------------xxxxxxxxxxxx-|
E|------------------------------------------|


Right Guitar:
E|------------------------------------------|
B|-2222222--2222222--222--222--2222222--232-|
G|-2222222--2222222--222--222--2222222------|
D|-0000000--0000000--000--000--0000000------|
A|------------------------------------------|
E|------------------------------------------|

E|-----------------------------------------------------------|
B|-2222222--232-2222222-232--222-232--222--232--2222222--232-|
G|-2222222------2222222------222------222-------2222222------|
D|-0000000------0000000------000------000-------0000000------|
A|-----------------------------------------------------------|
E|-----------------------------------------------------------|

E|-----------------------------------------------------------|
B|-2222222--232-2222222-232--222-232--222--232--xxxxxxxxxxxx-|
G|-2222222------2222222------222------222-------xxxxxxxxxxxx-|
D|-0000000------0000000------000------000-------xxxxxxxxxxxx-|
A|----------------------------------------------xxxxxxxxxxxx-|
E|-----------------------------------------------------------|


Bridge 2

Left Guitar:
E|------------------------------------------------------------------|
B|------------------------------------------------------------------|
G|-6--7-7--6-7--6-6-6--7-7--6-7--6h7--7-7--6-6--4-6--6h7--6-6h76-5--|
D|------------------------------------------------------------------|
A|------------------------------------------------------------------|
E|------------------------------------------------------------------|

E|--------------------------------------------------------------|
B|--------------------------------------------------------------|
G|-6--7-7--6-7--6-6-6--7-7--6-7--6h7--7-7--6-6--4-6--6h7--6--5--|
D|--------------------------------------------------------------|
A|--------------------------------------------------------------|
E|--------------------------------------------------------------|


Right Guitar:
E|-----------------------------------------------------------|
B|--------------------2-2-2-2-2-22-2-2-2-2-2-2-2-2--------9--|
G|-4-4-4-4-4-4-42-2-2-2-2-2-2-2-22-2-2-2-2-2-2-2-2--------9--|
D|-4-4-4-4-4-4-44-4-4-0-0-0-0-0-00-0-0-2-2-2-2-2-2--------9--|x2
A|-2-2-2-2-2-2-20-0-0------------------0-0-0-0-0-0--------7--|
E|-------------------------------------------------4-2-0-----|


Verse

Left Guitar:
E|--------------------------------------------|
B|-3-3-------2-2--------2-2-----3--9-9--------|
G|-2-2-------2-2--------2-2-----2--9-9--------|
D|-x-x-------0-0--------2-2-----2--9-9--------|
A|-2-2------------------0-0-----0--7-7--------|
E|--------------------------------------------|

E|--------------------------------------------------|
B|-3-3--2-2--2-2--2-2---2-2--2-2---9-9-9--9-9-99999-|
G|-2-2--2-2--2-2--2-2---2-2--2-2---9-9-9--9-9-99999-|
D|-x-x--x-x--0-0--0-0---4-4--4-4---9-9-9--9-9-99999-|
A|-2-2--2-2-------------4-4--4-4---7-7-7--7-7-77777-|
E|--------------------------------------------------|


Right Guitar:
E|-----5------5-5----7--5-5----5-5-------5-5----7-5--------5-5----5-5------5-7--7-7-7-57-9-7-67-|
B|-5-7---7-5--5-5-------5-5----5-5--5-7--5-5--------7-5-7--5-5----5-5--5-7------5-5-5-55--------|
G|----------------------------------------------------------------------------------------------|
D|----------------------------------------------------------------------------------------------|
A|----------------------------------------------------------------------------------------------|
E|----------------------------------------------------------------------------------------------|


Left Guitar
E|-----------------------------------|-----------------------------------|
B|-3-3-3--2-2-22-2--2-2-2--2-2-22222-|-2-2-2--2-2-22-3--9-9-9--9-9-99999-|
G|-2-2-2--2-2-22-2--2-2-2--2-2-22222-|-2-2-2--2-2-22-2--9-9-9--9-9-99999-|
D|-x-x-x--x-x-xx-x--0-0-0--0-0-00000-|-2-2-2--2-2-22-2--9-9-9--9-9-99999-|
A|-2-2-2--2-2-22-2-------------------|-0-0-0--0-0-00-0--7-7-7--7-7-77777-|
E|-----------------------------------|-----------------------------------|


Right
E|---5-5--5-5-55-5----5-5--5-5-55555-|---5-5--5-5-55-5--7-7-7--7-7-77777-|
B|-7-5-5--5-5-55-5--7-5-5--5-5-55555-|---5-5--5-5-55-5--5-5-5--5-5-55555-|
G|-----------------------------------|-----------------------------------|
D|-----------------------------------|-----------------------------------|
A|-----------------------------------|-----------------------------------|
E|-----------------------------------|-----------------------------------|

Both Guitars
E|---------------------------------|
B|-3-3-2-2-3-3-2-2-3-3-2-2-3-3-2-2-|
G|-2-2-2-2-2-2-2-2-2-2-2-2-2-2-2-2-|
D|---------------------------------|
A|---------------------------------|
E|---------------------------------|


Left Guitar
E|-2-2-2-2-2-2-2-2--------------------|
B|-2-2-2-2-2-2-2-2-9-9-9-9-9-9-xxxxxx-|
G|-2-2-2-2-2-2-2-2-9-9-9-9-9-9-xxxxxx-|
D|-4-4-4-4-4-4-4-4-9-9-9-9-9-9-xxxxxx-|
A|-4-4-4-4-4-4-4-4-7-7-7-7-7-7-xxxxxx-|
E|-----------------0-0-0-0-0-0--------|


Right Guitar
E|------------------------------------|
B|-----5-5-----5-5-----5-5-----xxxxxx-|
G|---------------------------4-xxxxxx-|
D|-4-4-----4-4-----4-4-----4-4-xxxxxx-|
A|-----------------------------xxxxxx-|
E|------------------------------------|

Chorus

Left Guitar
E|--------------------------------------------|
B|-2--------2--------9--------3-3-2-2-3-3-2-2-|
G|-2--------2--------9--------2-2-2-2-2-2-2-2-|
D|-0--------4--------9--------x-x-x-x-x-x-x-x-|
A|----------4--------7--------2-2-2-2-2-2-0-0-|
E|--------------------------------------------|

E|-------------------------------------------------|
B|-2-2-2-2-2-2-2-2-2-2-2-2-2-2-2-2-9-9-9-9-9-9-9-9-|
G|-2-2-2-2-2-2-2-2-2-2-2-2-2-2-2-2-9-9-9-9-9-9-9-9-|
D|-0-0-0-0-0-0-0-0-4-4-4-4-4-4-4-4-9-9-9-9-9-9-9-9-|
A|-----------------4-4-4-4-4-4-4-4-7-7-7-7-7-7-7-7-|
E|-------------------------------------------------|

E|---------------------|
B|-3-3-2-2-3-3-2-2-3-\-|
G|-2-2-2-2-2-2-2-2-2-\-|
D|-x-x-x-x-x-x-x-x-x-\-|
A|-2-2-2-2-2-2-2-2-2-\-|
E|---------------------|


Right Guitar:

E|-5-5------9-9------9-9------5-5-5-5-7-7-5-5-|
B|-5-5------5-5------5-5------5-5-5-5-5-5-5-5-|
G|--------------------------------------------|
D|--------------------------------------------|
A|--------------------------------------------|
E|--------------------------------------------|

E|-5-5--555--5-5-5555--5-5--555--5-5-5555-5-5--555--5-5-5555--|
B|-5-5--555--5-5-5555--5-5--555--5-5-5555-5-5--555--5-5-5555--|
G|------------------------------------------------------------|
D|------------------------------------------------------------|
A|------------------------------------------------------------|
E|------------------------------------------------------------|

E|-5-5-5-5-7-7-5-5--|
B|-5-5-5-5-5-5-5-5--|
G|------------------|
D|------------------|
A|------------------|
E|------------------|

E|-7/12----12h14-12----12h14-12----12h14--10-12-9-12----12--------|
B|---------------------------------------------------12---10/15\0-|
G|----------------------------------------------------------------|
D|----------------------------------------------------------------|
A|----------------------------------------------------------------|
E|----------------------------------------------------------------|

=========================

/-Slide Up
\=Slide Down
X= Dead Note
h=Hammer-Ons
.=palm muted
Tap to rate this tab
# A B C D E F G H I J K L M N O P Q R S T U V W X Y Z