Song name
# A B C D E F G H I J K L M N O P Q R S T U V W X Y Z

Say Anything - Spidersong tab

Help us improve GuitareTab! Take a short survey!
-----------------------------------------------------------------------------
			   Spidersong - Say Anything
-----------------------------------------------------------------------------

Tuning:Standard

Intro
e|-------------------------------------------------|
B|-------------------------------------------------|
G|-9-9-9-9-9-9-9-9-----------------9-9-8-8---------|
D|-9-9-9-9-9-9-9-9-9-9-9-9-9-9-9-9-9-9-8-8-9-9-x-x-|
A|-7-7-7-7-7-7-7-7-9-9-9-9-9-9-9-9-7-7-6-6-9-9-x-x-|
E|-----------------7-7-7-7-7-7-7-7---------7-7-x-x-|

Chorus
e|-------------------------------------------------|
B|-------------------------------------------------|
G|-6-6-6-6-6-6-6-6-----------------9-9-8-8---------|
D|-6-6-6-6-6-6-6-6-6-6-6-6-6-6-6-6-9-9-8-8-9-9-4-4-|
A|-4-4-4-4-4-4-4-4-6-6-6-6-6-6-6-6-7-7-6-6-9-9-4-4-|
E|-----------------4-4-4-4-4-4-4-4---------7-7-2-2-|

Verse
e|-------------------------------------------------|
B|-----4--4------4--4---5-4---4------5-4---4---4---|
G|--------------------------4---4--4-----4---4---4-|
D|-------------------------------------------------|
A|-2-2---------------------------------------------|
E|-----------2-2------4----------------------------|
p.m...       ...      .

I better watch my back around you...
e|-----------------------------------------------------|
B|-----------------------------------------------------|
G|---------------------------------8-8-6-8-6-8-8-9-8-6-|
D|-2-4-1-2---1-----2-4-1-2---1-----8-8-6-8-6-8-8-9-8-6-|
A|---------4---2-4---------4---2-4---------------------|
E|-----------------------------------------------------|
Related for Spidersong tab