Song name
# A B C D E F G H I J K L M N O P Q R S T U V W X Y Z

Say Anything - Last Great Punk Rock Song tab

Help us improve GuitareTab! Take a short survey!
intro
|-----------------------------|
|-----------------------------|
|--4~-------------------------|
|--4~---2~---6~-4~--22222222--|
|--2~---2~---6~-4~--22222222--|
|-------0~---4~-2~--00000000--|

|----------------------------------------------------------------------------|
|----------------------------------------------------------------------------|
|--44-4-66-6-88-8-66-6-99-9-66-6-88-8-66-6---xx-4/6-xx-64--6-16-15-13-11-----|
|--xx-x-xx-x-xx-x-xx-x-xx-x-xx-x-xx-x-xx-x---xx-x/x-xx-xx--x--x--x--x--x-----|
|--22-2-44-4-66-6-44-4-77-7-44-4-66-6-44-4---xx-2/4-xx-42--4-14-13-11--9-----|
|----------------------------------------------------------------------------|

|----------------------------------------------------------------------------|
|----------------------------------------------------------------------------|
|--44-4-66-6-88-8-66-6-99-9-66-6-88-8-1111-11-----4/6--84--16~---15-16~------|
|--xx-x-xx-x-xx-x-xx-x-xx-x-xx-x-xx-x--x-x--x-----x/x--xx---x~----x--x~------|
|--22-2-44-4-66-6-44-4-77-7-44-4-66-6--9-9--9-----2/4--62--14~---13-14~------|
|----------------------------------------------------------------------------|

verse
|--------------------------------------------------|
|--------------------------------------------------|
|---4~---xx-4~-----9999-8888-----------------------|
|---4~---xx-4~-----xxxx-xxxx---6666-4444-22222224--|
|---2~---xx-2~-----7777-6666---6666-4444-22222224--|
|------------------------------4444-2222-00000002--|

|---------------------------------------------------|
|---------------------------------------------------|
|---4-------4------4~-3~-9~-8~----------------------|
|---4~------4~-----x~-x~-x~-x~--6666-4444-22222224--|
|---2~------2~-----2~-1~-7~-6~--6666-4444-22222224--|
|-------------------------------4444-2222-00000002--|

chorus
|--------------------------------------------------------------------|
|--------------------------------------------------------------------|
|---------------------------------------------------4-4-4-4-4-4-4-4--|
|---6-6-6-6-6-6-6-6-4-4-4-4-4-4-4-4-2-2-2-2-2-2-2-2-4-4-4-4-4-4-4-4--|
|---6-6-6-6-6-6-6-6-4-4-4-4-4-4-4-4-2-2-2-2-2-2-2-2-2-2-2-2-2-2-2-2--|
|---4-4-4-4-4-4-4-4-2-2-2-2-2-2-2-2-0-0-0-0-0-0-0-0------------------|

|-------------------------------------------------------|
|-------------------------------------------------------|
|-------------------------------------------------------|
|---6-6-6-6-6-6-6-6-4-4-4-4-4-4-4-4-2-2-2-2-2-2-2-2-4~--|
|---6-6-6-6-6-6-6-6-4-4-4-4-4-4-4-4-2-2-2-2-2-2-2-2-4~--|
|---4-4-4-4-4-4-4-4-2-2-2-2-2-2-2-2-0-0-0-0-0-0-0-0-2~--|


long bridge
|----------------------------------------------------------------------------|
|----------------------------------------------------------------------------|
|--44-4-66-6-88-8-66-6-99-9-66-6-88-8-66-6---xx-4/6-xx-64--6-16-15-13-11-----|
|--xx-x-xx-x-xx-x-xx-x-xx-x-xx-x-xx-x-xx-x---xx-x/x-xx-xx--x--x--x--x--x-----|
|--22-2-44-4-66-6-44-4-77-7-44-4-66-6-44-4---xx-2/4-xx-42--4-14-13-11--9-----|
|----------------------------------------------------------------------------|

|--------------------------------------------------------------|
|--------------------------------------------------------------|
|--44-4-66-6-88-8-66-6-99-999-9-88-8-66-6----4/6--84--16~------|
|--xx-x-xx-x-xx-x-xx-x-xx-xxx-x-xx-x-xx-x----x/x--xx---x~------|
|--22-2-44-4-66-6-44-4-77-777-7-66-6-44-4----2/4--62--14~------|
|--------------------------------------------------------------|


verse 2
|----------------------------------------------------------------------------|
|----------------------------------------------------------------------------|
|--4~-3~-9~-8~-4~-3~-4~--44-444-444-4444-44-99-999-999-9999-9----------------|
|--x~-x~-x~-x~-x~-x~-x~--44-444-444-4444-44-99-999-999-9999-9-66666-44444----|
|--2~-1~-7~-6~-2~-1~-2~--22-222-222-2222-22-77-777-777-7777-7-66666-44444----|
|-------------------------------------------------------------44444-22222----|

-----|	                .. ... ... .... .. .. ... ... .... .
-------|
-------|
22222224-|
22222224-|
00000002-|

reapeat chorus


interlude (2x)
|--------------14-----------------------14-----------------------14----------|
|--------12----------12-----------12----------12-----------12----------12----|
|--13-13----13----13----13--11-11----11----11----11--------------------------|
|----------------------------------------------------14-14----14----14----14-|
|----------------------------------------------------------------------------|
|----------------------------------------------------------------------------|

|--------------14-----------|
|--------12----------12-----|
|---------------------------|
|--14-14----14----14----14--|
|---------------------------|
|---------------------------|

|-------------------------------------------------------------------|
|-------------------------------------------------------------------|
|--------------------------------------------------4-4-4-4-4-4-4-4--|
|--6--6-6-6-6-6-6-4-4-4-44-4-4-4-4-2-2-2-2-2-2-2-2-4-4-4-4-4-4-4-4--|
|--6--6-6-6-6-6-6-4-4-4-44-4-4-4-4-2-2-2-2-2-2-2-2-2-2-2-2-2-2-2-2--|
|--4--4-4-4-4-4-4-2-2-2-22-2-2-2-2-0-0-0-0-0-0-0-0------------------|
 p.m. . . . . . . . . . .. . . . . . . . . . . . . . . . . . . . .

|------------------------------------------------------------|
|------------------------------------------------------------|
|------------------------------------------------------------|
|--66-------------44---------------222222224------xxxxxxxx---|
|--66-------------44---------------222222224------xxxxxxxx---|
|--44-------------22---------------000000002------xxxxxxxx---|
		                 ........

|--------------------------------------------------------------------|
|--------------------------------------------------------------------|
|---------------------------------------------------4-4-4-4-4-4-4-4--|
|---6-6-6-6-6-6-6-6-4-4-4-4-4-4-4-4-2-2-2-2-2-2-2-2-4-4-4-4-4-4-4-4--|
|---6-6-6-6-6-6-6-6-4-4-4-4-4-4-4-4-2-2-2-2-2-2-2-2-2-2-2-2-2-2-2-2--|
|---4-4-4-4-4-4-4-4-2-2-2-2-2-2-2-2-0-0-0-0-0-0-0-0------------------|

|-----------------------------------------------------------|
|-----------------------------------------------------------|
|-----------------------------------------------------------|
|---66-xxxx--66-xxxx--44-xxxx--44-xxxx--2-2-2-2-2-2-2-2-4~--|
|---66-xxxx--66-xxxx--44-xxxx--44-xxxx--2-2-2-2-2-2-2-2-4~--|
|---44-xxxx--44-xxxx--22-xxxx--22-xxxx--0-0-0-0-0-0-0-0-2~--|

|---------------------------------------------------------------------|
|---------------------------------------------------------------------|
|--44-4-66-6-88-8-66-6-99-9-66-6-88-8-66-6---xx-4/6-xx-64---16~-------|
|--xx-x-xx-x-xx-x-xx-x-xx-x-xx-x-xx-x-xx-x---xx-x/x-xx-xx----x~-------|
|--22-2-44-4-66-6-44-4-77-7-44-4-66-6-44-4---xx-2/4-xx-42---14~-------|
|---------------------------------------------------------------------|

|----------------------------------------------------------------------------|
|----------------------------------------------------------------------------|
|--15-16-15-11-15-16-18-16--1616161616-1515151515-1111111111111111-9999------|
|---x--x--x--x--x--x--x--x---x-x-x-x-x--x-x-x-x-x--x-x-x-x-x-x-x-x-xxxx------|
|--13-14-13--9-13-14-16-14--1414141414-1313131313--9-9-9-9-9-9-9-9-7777------|
|----------------------------------------------------------------------------|

-----|
-----|
8888-8~--|
xxxx-x---|
6666-6~--|
-----|

|------------|
|------------|
|--4~--8~----|
|--x---x-----|
|--2~--6~----|
|------------|
Related for Last Great Punk Rock Song tab