Song name
# A B C D E F G H I J K L M N O P Q R S T U V W X Y Z

Say Anything - Writhing South tab

The Writhing South
Say Anything
...Is a real boy
Alright this is all for guitar 1, I'm too lazy to do anything else.
But any feedback would be great
Email me at donnknotts@gmail.com

Intro (Played Twice, Second Time W/Distortion)
e|----------------------------------------------------------------------2--|
B|----------------------------------------------------------------------2--|
G|--------------------------------------------------------------4-4-4------|
D|xx-11-11-11-11-11-11-11--xx-7-7-7-7-7-7-7-xx-7-7-7-7-7-7-7-xx-4-4-4-4---4|
A|xx-9--11-9--7--7--7--7---xx-5-7-5-4-4-4-4-xx-5-7-5-4-4-4-4-xx-2-2-2-4---4|
E|--------------------------------------------------------------------2---2|

e|-------------------------------------------------------------------------|
B|-------------------------------------------------------------------------|
G|--------------------------------------------------------------4-4-4------|
D|xx-11-11-11-11-11-11-11--xx-7-7-7-7-7-7-7-xx-7-7-7-7-7-7-7-xx-4-4-4-4~---|
A|xx-9--11-9--7--7--7--7---xx-5-7-5-4-4-4-4-xx-5-7-5-4-4-4-4-xx-2-2-2-4~---|
E|--------------------------------------------------------------------2~---|

Verse
 "Searching for blood in the..."
e|----------------------------------------------|
B|----------------------------------------------|
G|----------------------------------------------|
D|---7------7-------4-------6h7p6---------------|
A|-5---5--4---4---4----7--7--------7------------|
E|--------------2-------------------------------|

 "I've got this red right hand..."
e|----------------------------------------------|
B|----------------------------------------------|
G|-7--7--7--6--6--x-----------9--9--9--9--9-----|
D|-7--7--7--7--7--x--4--4--4--9--9--9--9--9-----|
A|-5--5--5--4--4--x--4--4--4--7--7--7--7--7-----|
E|-------------------2--2--2--------------------|


Prechorus
 "Hey......"
E|--------------------------------------------|
B|--------------------------------------------|
G|--7-7--7-7-7--7-9-9--9-9-9--6-6-6-6-9-9-9-9-|
D|--------------------------------------------|
A|--5-5--5-5-5--5-7-7--7-7-7--4-4-4-4-7-7-7-7-|
E|--------------------------------------------|


Chorus
E|---------------------------------------------------------------|
B|---------------------------------------------------------------|
G|--7--7-----------7--7-----------7--7-----------9-9-9-----------|
D|--7--7---7-7-7---7--7---7-7-7---7--7---7-7-7---9-9-9---7-7-7-7-|
A|--5--5---7-7-7---5--5---7-7-7---5--5---7-7-7---7-7-7---7-7-7-7-|
E|--5--5---5-5-5---5--5---5-5-5---5--5---5-5-5-----------5-5-5-5-|

Bass repeats intro...
Guitar plays some natural harmonics, real easy to figure out, and once again I am lazy

Heres the basics of that Breakdown

E|-----------------------------------------|
B|-----------------------------------------|
G|-----------------4-------6-6-6-6-6-5h6-6-|
D|-------------------7-6-4-----------------|
A|--5--5-5-5-5-4-2-------------------------|
E|-----------------------------------------|
Tap to rate this tab
# A B C D E F G H I J K L M N O P Q R S T U V W X Y Z