Song name
# A B C D E F G H I J K L M N O P Q R S T U V W X Y Z

Say Anything - By Tonight tab

Tab: By Tonight
Artist: Say Anything
Tabbed By: Daniella
-------------------------------------
Ok, so the other tab for this, which is just the intro... well... it's really bad... so 
gonna put up the whole tab for it.
Standard tuning;ebgdae

/\ = slide up, down
AH = artificial harmonic
() = sustain the note
h  = hammer on
p  = pull off
T  = note held down with thumb
|  = shows where the bar is
f  = full bend
h  = half bend
q  = quarter bend
r  = reverse bend

[play 2x and then guitar 2 comes in and plays 2x]
Guitar 1: [intro and verse]
e|-------------------------------------------------|
b|-------------------------------------------------|
g|-------------------------------------------------|
d|-7-7--9-9--4-4--5-5------------------------------|
a|-7-7--9-9--4-4--5-5------------------------------|
e|-5-5--7-7--2-2--3-3------------------------------|

Guitar 2: [intro and verse]
e|-------------------------------------------------|
b|-2-2-3-3-5-5-7-7--2-2-3-3-2-2-0-0----------------|
g|-2-2-4-4-6-6-7-7--2-2-4-4-2-2-0-0----------------|
d|-------------------------------------------------|
a|-------------------------------------------------|
e|-------------------------------------------------|

ok so basically what happens is the first 4 rounds of guitar one in the verse guitar 2 
play and then guitar 2 comes in and plays 4 times with guitar one.
Refrain:[cuz you turned me on...]
e|-------------------------------------------------|
b|-------------------------------------------------|
g|-2-2-2--4-4-4--2-2-2--4-2-2----------------------|
d|-2-2-2--4-4-4--2-2-2--4-2-2--x2------------------|
a|-0-0-0--2-2-2--0-0-0--2-0-0----------------------|
e|-------------------------------------------------|

e|-------------------------------------------------|
b|-------------------------------------------------|
g|-------------[and angel we are so gone]----------|
d|-4-4-4-4-5---------------------------------------|
a|-4-4-4-4-5---------------------------------------|
e|-2-2-2-2-3---------------------------------------|

Chorus
e|---------------------------------|-angle that-----|
b|---------------------------------|--you've missed-|
g|---------------------------------|-2--------------|
d|-2-2--4-4--7-7-7-7-7-7----x3-----|--0-2-0-2-0-x2--|
a|-2-2--4-4--7-7-7-7-7-7-----------|----------------|
e|-0-0--2-2--5-5-5-5-5-5-----------|----------------|

Verse [same deal with both guitars]
Chorus [same deal]
And nothing exsists, but this, Nothing exsists,
Guitar!:
e|---------------------------------------------7---|
b|-------------------------------------10-10-7--7--|
g|----7-9f---7-9f-9f---7-9h-----9-9-11-11----------|
d|-7h9-9--7h9-9-----7h9-9--7h9---------------------|
a|-------------------------------------------------|
e|-------------------------------------------------|

e|------7-7----------------------------------------|
b|10-7--------7--9f---7-9h-9h----------------------|
g|---------7h9-9---7h9-9---------------------------|
d|-------------------------------------------------|
a|-------------------------------------------------|
e|-------------------------------------------------|

Refrain.
Chorus

Guitar 1:
e|-------------------------------------------------|
b|-------------------------------------------------|
g|-------------------------------------------------|
d|-7-7--9-9--4-4--5-5------x2----------------------|
a|-7-7--9-9--4-4--5-5------------------------------|
e|-5-5--7-7--2-2--3-3------------------------------|

Guitar 2:
e|---------------------------------------------------|
b|--7---7h8h7----------------------------------------|
g-----7-------------------x2 (listen to the song-----|
d|----------------------------to hear how it fits)---|
a|---------------------------------------------------|
e|---------------------------------------------------|

e|-------------------------------------------------|
b|--5-5-7-7-5-5-3-3--------------------------------|
g|--6-6-7-7-6-6-2-2--------------------------------|
d|-------------------------------------------------|
a|-------------------------------------------------|
e|-------------------------------------------------|
End.
Tap to rate this tab
# A B C D E F G H I J K L M N O P Q R S T U V W X Y Z