Song name
# A B C D E F G H I J K L M N O P Q R S T U V W X Y Z

Say Anything - A Walk Through Hell Acoustic tab

A Walk Through Hell

Verse
e|---------------------------------------------------------------------------------|
B|---------------------------------------------------------------------------------|
G|-----6--6-----6--6-----6--6-----6--6-----6--6----6--6-----6--6-------------------|
D|-----7--7-----7--7-----7--7-----7--7-----7--7----7--7-----7--7---------7p0-------|
A|--0-0------0-0------9-9------9-9------7-7------7-7-----5-5------5-5-5h7----------|
E|---------------------------------------------------------------------------------|

e|--------------------------------------------------------------------------------------|
B|--------------------------------------------------------------------------------------|
G|-----6--6-----6--6-----6--6-----6--6-----6--6----6--6-----6--6--6-7-6-7-6-7-6-7-------|
D|-----7--7-----7--7-----7--7-----7--7-----7--7----7--7-----7--7--7-7-7-7-7-7-7-7-------|
A|--0-0------0-0------9-9------9-9------7-7------7-7-----5-5------5-5-5-5-5-5-5-5-------|
E|--------------------------------------------------------------------------------------|

Pre-chorus 1(x2)
e|----------------------------------------------|
B|----------------------------------------------|
G|-----2---2-----2---2-----2---2----------------|
D|--0-0--2---------2---------2-----------0h2----|
A|------------4-4-------2-2-------0-0-0h2-------|
E|----------------------------------------------|

Pre-chorus 2
e|--------------||--------------------------|
B|--------------||--(after the first time)--|
G|--2--2--2-----||------------2-------------|
D|--0--x--x-----||------------x-------------|
A|-----4--2-----||------------2-------------|
E|--------------||--------------------------|

Verse(x2)
Pre-chorus 1(x2)
Pre-chorus 2

Chorus(x2)
e|----------------------------------------------------------------------------|
B|----------------------------------------------------------------------------|
G|-----------------------------------------7-7--------------------------------|
D|--7--7--7-7-7--4-4--2-2--2--2-2-2--4-4-7-7-7--x--4-4--x--2--2--2-2-2-4-4-7--|
A|--7--7--7-7-7--4-4--2-2--2--2-2-2--4-4-7-5-5--x--4-4--x--2--2--2-2-2-4-4-7--|
E|--5--5--5-5-5--2-2--0-0--0--0-0-0--2-2-5------x--2-2--x--0--0--0-0-0-2-2-5--|

After-chorus Riff
E|-----0-------------------------0------------------------|
B|--2h3--0/3-0/3p0------------2h3--0/3-0/3p0--------2--0--|
G|----------------2------2-------------------2------------|
D|-----------------4p2--4---------------------4p2--4------|
A|--------------------------------------------------------|
E|--------------------------------------------------------|

Pre-chorus 1(x4)
Pre-chorus 2
Chorus(x4)
Tap to rate this tab
 
# A B C D E F G H I J K L M N O P Q R S T U V W X Y Z