Song name
# A B C D E F G H I J K L M N O P Q R S T U V W X Y Z

Say Anything - Admit It tab

-------------------------------------------------------------------------------
                Admit It!!!(live acoustic) - Say Anything
-------------------------------------------------------------------------------
Tabbed by:azimuth457
Email:azimuth457@gmail.com

Live acoustic version performed on Spinhouse Live, viewable on youtube.
Played with three guitars and a keyboard.
I found it easiest to tab out one guitar, but for other things, i couldn't
always tell who was playing what.

watch them play it here: http://youtube.com/watch?v=_DTfbIRAH-A

Tuning: Standard

Intro: Guitar 1
e|---------------------------------------4-----------------------------------|
B|-----4-4----4-4----4-4--------------4---4--------------------------4-4-----|
G|-----4-4----4-4----4-4--------------4------------------------------4-4-----|
D|-----------------------------------------6---------------------------------|
A|---------------------------------------------------------------------------|
E|-4-------------------------------------------------------------------------|

Intro: Guitar 2
e|---------------------------------------------------------------------------|
B|-----4-4----4-4----4-4---------------------------------------------4-4-----|
G|-----4-4----4-4----4-4---------------------------------------------4-4-----|
D|---------------------------------------------------------------------------|
A|---------------------------------------------------------------------------|
E|-4-------------------------------------------------------------------------|

Intro: Keyboard(on guitar)(this continues through "verse")
e|---------------------------------------------------------------------------|
B|---------------------------------------------------------------------------|
G|------------8-8---------8-8------------------------------------------------|
D|---6-9-8--------------------------
                        
                    
Tap to rate this tab
# A B C D E F G H I J K L M N O P Q R S T U V W X Y Z