Song name
# A B C D E F G H I J K L M N O P Q R S T U V W X Y Z

Say Anything - We Will Erase All Life On Earth But Us tab

Say Anything
We Will Erase All Life On Earth, But Us
This is my favorite song by Say Anything
Email me for any comments, corrections, etc
donnknotts@gmail.com

Intro 

e|----0-----------------0-----------------------|
B|----0-----------------0-----------------------|
G|----1-----------------1-----------------------|
D|-2--2----9-10-13-14---2-----------------------|
A|-2--2-----------------2-----------------------|
E|-0--0-----------------0-----------------------|

Intro Part II & Verse
Guitar 1

e|---------------------------------------------------------|
B|---------------------------------------------------------|
G|----8-8-9-9-----8-8-11-9-----8-8-9-9---------------------|
D|-2-----------2------------2------------6-----7-----9-11-9|
A|-2--6-6-7-7--2--6-6-9--7--2--6-6-7-7---6-----7-----9-11-9|
E|-0-----------0------------0------------4-0-0-5-0-0-7s9--7|


e|----------------------------------------------------------|
B|----------------------------------------------------------|
G|----8-8-9-9-----8-8-11-9----------------------------------|
D|-2-----------2------------6-6-6-9-9-9-7-7-7-9-9-11-9------|
A|-2--6-6-7-7--2--6-6-9--7--6-6-6-9-9-9-7-7-7-9-9-11-9------|
E|-0-----------0------------4-4-4-7-7-7-5-5-5-7-7-9--7------|

Guitar 2 (Not much different at all really)

e|---------------------------------------------------------|
B|---------------------------------------------------------|
G|----8-8-9-9-----8-8-11-9-----8-8-9-9---------------------|
D|-2-----------2------------2------------6-----7-----9-11-9|
A|-2--6-6-7-7--2--6-6-9--7--2--6-6-7-7---6-----7-----9-11-9|
E|-0-----------0------------0------------4-0-0-5-0-0-7s9--7|


e|----------------------------------------------------------|
B|----------------------------------------------------------|
G|----8-8-9-9-----8-8-11-9----------------------------------|
D|-2-----------2------------6-6-6-9-9-9-7-7-7-9-9-----2-----|
A|-2--6-6-7-7--2--6-6-9--7--6-6-6-9-9-9-7-7-7-9-9-2-4-------|
E|-0-----------0------------4-4-4-7-7-7-5-5-5-7-7-----------|


Prechorus (Mess around with this, I don't feel like typing every little rhythm)

e|----------------------------------------------------------|
B|-----------------------------------7---7------------------|
G|--9-9------9-9------9-9-----------------------------------|
D|-------2~-------2~-------2-----4-4---4---2----------------|
A|--7-7--2~--7-7--2~--7-7--2---------------2----------------|
E|-------0~-------0~-------0---------------0----------------|



Chorus (Play it 4 times)

e|----------------------------------------------------------|
B|----------------------------------------------------------|
G|----------------------------------------------------------|
D|--6-6-6-6-9-9-2--2-2-2-2----------------------------------| 
A|--6-6-6-6-9-9-2--2-2-2-2----------------------------------|
E|--4-4-4-4-7-7-0--0-0-0-0----------------------------------|


Breakdown Part 1
Guitar 1

e|----------------------------------------------------------|
B|----------------------------------------------------------|
G|----------------------------------------------------------|
D|--9-11-9-6-9-2---2-2-2------------------------------------| 
A|--9-11-9-6-9-2---2-2-2------------------------------------|
E|--7s9--7-4-7-0---0-0-0------------------------------------|

Guitar 2

e|----------------------------------------------------------|
B|----------------------------------------------------------|
G|--4h6-4--4-----------------4h6-4-4---------4h6-4-4--------|
D|-------6----------2-2h4---------6-------2h4-----6-4-------| 
A|-----------7--2h4------2h4---------7-2h4------------7-----|
E|----------------------------------------------------------|

Breakdown Part 2 (The "We will erase all life on earth, but us" soft part)

e|-------------------------------|
B|------------------10-9---------|
G|--9---9----9------9--9---------|
D|--9---9----9------7--7---------| 
A|--7---------------7--7---------|
E|------9----7-------------------|


OUtro
Guitar 1

e|----------------------------------------------------------|
B|----------------------------------------------------------|
G|--9-999999-9-999999---------------------------------------|
D|--9-999999-9-999999-9-999999------------------------------| 
A|--7-777777----------9-999999------------------------------|
E|-----------9-999999-7-777777------------------------------|

Guitar 2 (Lead at the end, hard to make out, I think I got the jist of it)

e|--7-7-7h9-7-7-7-7h9-7-7-7-7h9-7-12-11-11-9-9-7-7----------|
B|----------------------------------------------------------|
G|----------------------------------------------------------|
D|----------------------------------------------------------| 
A|----------------------------------------------------------|
E|----------------------------------------------------------|

e|--7-7-7h9-7-7-7-7h9-7------7h9------7h9------7h9--12~-----|
B|----------------------9h10-----9h10-----9h10--------------|
G|----------------------------------------------------------|
D|----------------------------------------------------------| 
A|----------------------------------------------------------|
E|----------------------------------------------------------|







Tap to rate this tab
# A B C D E F G H I J K L M N O P Q R S T U V W X Y Z