Song name
# A B C D E F G H I J K L M N O P Q R S T U V W X Y Z

Say Anything - This Is Fucking Ecstasy tab

Say Anything
"This is Fucking Ecstasy"
Tab taken from PlaySA.net

Tuning: Eb Standard

"I'm sinking yet I'll stride.."
Guitar 1
eb|-------------------|
Bb|-------------------|
Gb|--9--8---9--8--11--|
Db|--9--9---9--9--11--|
Ab|--7--6------6---9--|
Eb|---------9---------|

Guitar 2
eb|-----------------------------------------|
Bb|-----------------------------------------|
Gb|-----------------------------------------|
Db|---/6p4-6p4--------------9-8---------8-9-|
Ab|-----------------------------9----9------|
Eb|------------4p2-4p2---9\-------11--------|

eb|------------------------------------------|
Bb|----------------------------0---0---0-----|
Gb|------------------------------------------|
Db|-/6--6p4-6p4----------9\--8---8---8---8---|
Ab|------------------------------------------|
Eb|-------------4p2-4p2----------------------|

eb|-----------------------------------------------------------------------------------------|
Bb|-----------------------------------------------------------------------0-----------------|
Gb|-----------------------------------------------------------------------------------------|
Db|-/6-6p4-6p4--------------9-8---------8-9-----8h9---8h9---8h9---8h9---8---8-/13-11-9-8-9\-|
Ab|-----------------------------9----9-------11-----9-----7-----9-----9---------------------|
Eb|------------4p2-4p2---9\-------11--------------------------------------------------------|


"So tell me what you think..."
Guitar 1   				     ending chords
eb|-----------------------------------------|--------|
Bb|-----------------------------------------|--------|
Gb|--11-11-11--11-(x6)----11-11-11--11-(x6)-|--11-11-|
Db|---9--9--9---9----------9--9--9---9------|---9--9-|
Ab|---7--7--7-------------11-11-11----------|--11--9-|
Eb|---7--7--7-------------------------------|--------|

Guitar 2
eb|------------------------------|
Bb|------------------------------|
Gb|--8h9p8--8h9p8s11-/13-\8--6-6-|
Db|------------------------------|
Ab|------------------------------|
Eb|------------------------------|


____________________________________
"Now I've sold you out..."
(Chords Max plays acoustic)
eb|----------------------------------|
Bb|----------------------------------|
Gb|---4--3----6----------------------|
Db|---4--4----4----------------------|
Ab|-----------2----------------------|
Eb|---4--4---------------------------|
-------------------------------------|

"Now I've sold you out..."
eb|---------------------------------------|
Bb|--4-0---0-4-0-4-2-0--4-0---0-4-5-0-7-5-|
Gb|---------------------------------------|
Db|------4------------------4-------------|
Ab|---------------------------------------|
Eb|---------------------------------------|

eb|---------------------------------------|
Bb|--4-0---0-4-0-4-2-0--4-0---0-4---0---0-|
Gb|-------------------------------6---3---|
Db|------4------------------4-------------|
Ab|---------------------------------------|
Eb|---------------------------------------|

eb|---------------------------------------|
Bb|--4-0---0-4-0-4-2-0--4-0---0-4-5-0-7-5-|
Gb|---------------------------------------|
Db|------4------------------4-------------|
Ab|---------------------------------------|
Eb|---------------------------------------|
						
v bend the 7 to sound like the 8 and add vibrato
eb|-----------------------------------------------------|
Bb|--4-0---0-4-0-4-2-0--4--4-4-4--4-4-4--4-4------------|
Gb|---------------------4--4-4-4--4-4-4--4-4-6-7^8~~~---|
Db|------4----------------------------------------------|
Ab|-----------------------------------------------------|
Eb|-----------------------------------------------------|

"Cause The Truth Is This"
Guitar 1 (just chords)
eb|----------------------|
Bb|----------------------|
Gb|---9--------6---------|
Db|---9--------9---------|
Ab|---7------------------|
Eb|------------9---------|

Guitar 2 (after each chord is finished above it plays this chord several times.
it is also played along with the top chords at the end)
eb|-----|-at-one-point-you-play-this-|
Bb|-----|----------------------------|
Gb|--11-|------8-9-11-13-11-9--------|
Db|---9-|----------------------------|
Ab|-----|----------------------------|
Eb|-----|----------------------------|


"This Is Fuckin Ecstasy...."
eb|---------------|
Bb|---------------|
Gb|--11------11---|
Db|---9-------9---|
Ab|---7------11---|
Eb|---------------|
PM................
Tap to rate this tab
# A B C D E F G H I J K L M N O P Q R S T U V W X Y Z