Song name
# A B C D E F G H I J K L M N O P Q R S T U V W X Y Z

Say Anything - Futile tab

-------------------------------------------------------------------------------
		         THE FUTILE - Say Anything
-------------------------------------------------------------------------------
Tabbed by:azimuth457
Email:azimuth457@gmail.com

Tuning: Standard

Verse1: 0:02
e|---------------------------------------------------------------------------|
B|---------------------------------------------------------------------------|
G|--8-8---8-8--8\--8-8-8-------8-8-8-8-8------8-8-8-8-8---8------------------|
D|--9-9---9-9--9\--9-9-9-------9-9-9-9-9------9-9-9-9-9---9-(strum a bunch)--|
A|--x-x---x-x--7\--7-7-7-----------x-x-x----------x-x-x---7------------------|
E|--7-7---6-6--------------7-7-----7-7-7--6-6-----6-6-6----------------------|

Pre-Chorus: 0:17
e|---------7-7-7---------7-7-7-----------------------------------------------|
B|---------7-7-7---------7-7-7-----------------------------------------------|
G|---------8-8-8---------8-8-8--8--------------------------------------------|
D|------------------------------9---(repeat and slide down from last chord)--|
A|--9-9-9---------9-9-9---------7--------------------------------------------|
E|--7-7-7---------6-6-6------------------------------------------------------|

Chorus(strumming pattern not shown): 0:33
e|---------------------------------------------------------------------------|
B|--------5--4------------4---------4----------------------------------------|
G|--3--4--4--4---3--4--9--4---3--4--4----------------------------------------|
D|--4--4--x--x---4--4--7--x---4--4--x----------------------------------------|
A|--x--x--2--2---x--x--5--2---x--x--2----------------------------------------|
E|--2--4---------2--4---------2--4-------------------------------------------|

play verse, 0:48, listen for the different strumming pattern
play pre-chorus, 1:04
play chorus, 1:19

Outro: 1:35
e|---------------------------------------|-----------------------------------|
B|----------------4-4-4------------------|-----------------------------------|
G|--4-4-4--4-4-4--4-4-4--3-3-3-----------|------8-8-----8-8-----8-8---8\-----|
D|--4-4-4--4-4-4--x-x-x--4-4-4--(repeat)-|------9-9-----9-9-----9-9---9\-----|
A|--2-2-2--x-x-x--2-2-2--x-x-x-----------|----------------------------x\-----|
E|---------4-4-4---------2-2-2-----------|--7-7-----7-7-----7-7-------7\-----|
next time, the first chords are strummed more than three times.

the verse plays again, but i haven't tabbed out the individual notes yet
so strum each chord once quietly,
it almost gives the same effect, and its easier to sing along to.

after playing the pre-chorus to the outro again, youre done.=]

any questions or comments, email me.


| /  slide up
| \  slide down
| h  hammer-on
| p  pull-off
| ~  vibrato
| +  harmonic
| x  Mute note
===============================================================================
Tap to rate this tab
# A B C D E F G H I J K L M N O P Q R S T U V W X Y Z