Song name
# A B C D E F G H I J K L M N O P Q R S T U V W X Y Z

Say Anything - In To The Night tab

Its not too bad once you get the hang of it...

theres two guitars here so im gonna do only one. so there.
e------------------------------------------------------------------|
b-----------5------------------------------------------------------|
g---------6--6-------5---------------------------------------------|
d-------6------6---6--6---a buncha times ending on----4------------|
a-----4-----------6-----6-----------------------------------4------|
e----------------4-------------------------------------------2-----|

then:

palm mute in beginning and do ur own rthym
e--------------------------------------|
b--------------------------------------|
g--------------------------------------|
d---6--8--9----9-8-7-6----6--8--9------|
a---4--6--7----7-6-5-4----4--6--7------|
e--------------------------------------|

i saw a tear on a rose and i ripped it off for you
e--------------------------------------|
b--------------------------------------|
g----6-6-6-------9-9-9-4----6-6-6------|
d----6-6-6-6-6-6-9-9-9-4-4--6-6-6------|
a----4-4-4-6-6-6-7-7-7-2-4--4-4-4------|
e----------4-4-4------------2----------|

you as i gag on my guts cus im watching u give up. . .
e--------------------------------------|
b--------------------------------------|
g--6-6-6--9-8-------9-8--9-9-9-4---6---|
d--6-6-6--7-6-6-6-6-7-6--9-9-9-4-4-6---|
a--4-4-4-------6-6-6-----7-7-7-2-4-4---|
e--------------4-4-4---------------2---|
Tap to rate this tab
# A B C D E F G H I J K L M N O P Q R S T U V W X Y Z