Song name
# A B C D E F G H I J K L M N O P Q R S T U V W X Y Z

Say Anything - Walk Through Hell tab

Say Anything is a good band and I like this song a lot. I play this song a whole lot 
my band so this tab sounds amazing so I hope you enjoy it.

[Verse]
e|----------------------------------------------------------------------------|
B|----------------------------------------------------------------------------|
G|-----6--6-------6--6-----6--6-----6--6-----6--6----6--6-----6--6------------|
D|-----7--7-------7--7-----7--7-----7--7-----7--7----7--7-0-0-7--7-0-0-----7-9|
A|-0-0--------0-0------9-9------9-9------7-7------7-7-------------------7-9---|
E|----------------------------------------------------------------------------|
And if I could swim
I'd swim out to you in the ocean,
Swim out to where you were floating
in the dark.

e|----------------------------------------------------------------------------|
B|----------------------------------------------------------------------------|
G|-----6--6-------6--6-----6--6-----6--6-----6--6----6--6-----6--6------------|
D|-----7--7-------7--7-----7--7-----7--7-----7--7----7--7-0-0-7--7-0-0-----7-9|
A|-0-0--------0-0------9-9------9-9------7-7------7-7-------------------7-9---|
E|----------------------------------------------------------------------------|
And if was blessed
I walk on the water you're breathing,
To lend you some air for that heaving
Sunken chest.

[Verse 2]
e|----------------------------------------------|
B|----------------------------------------------|
G|----------------------------------------------|
D|-----7---7-----7---7-----7---7----------------|
A|-5-5---5---4-4---4---------------------5h7----|
E|---------------------7-7---7---5-5-5h7--------|
'Cause they chose you
As the model
For their empty little dreams.

e|----------------------------------------------|
B|----------------------------------------------|
G|----------------------------------------------|
D|-----7---7-----7---7-----7---7----------------|
A|-5-5---5---4-4---4---------------------5h7----|
E|---------------------7-7---7---5-5-5h7--------|
With your new head
And your legs spread
Like a filthy magazine.

e|--------------------------|
B|--------------------------|
G|------------~let ring~----|
D|-7-7---7-7---7------------|
A|-5-5---4-4---x------------|
E|-------------7------------|
And they hunt you
And they gut you
And you give in.

[Verse]
e|----------------------------------------------------------------------------|
B|----------------------------------------------------------------------------|
G|-----6--6-------6--6-----6--6-----6--6-----6--6----6--6-----6--6------------|
D|-----7--7-------7--7-----7--7-----7--7-----7--7----7--7-0-0-7--7-0-0-----7-9|
A|-0-0--------0-0------9-9------9-9------7-7------7-7-------------------7-9---|
E|----------------------------------------------------------------------------|
And if I was brave
I'd climb up to you on the mountain.
They led you to drink from their fountain
Spouting lies.

e|----------------------------------------------------------------------------|
B|----------------------------------------------------------------------------|
G|-----6--6-------6--6-----6--6-----6--6-----6--6----6--6-----6--6------------|
D|-----7--7-------7--7-----7--7-----7--7-----7--7----7--7-0-0-7--7-0-0-----7-9|
A|-0-0--------0-0------9-9------9-9------7-7------7-7-------------------7-9---|
E|----------------------------------------------------------------------------|
And I'd slay
The horrible beast they commissioned
To steer me away from my mission
To your eyes...

[Verse 2]
e|----------------------------------------------|
B|----------------------------------------------|
G|----------------------------------------------|
D|-----7---7-----7---7-----7---7----------------|
A|-5-5---5---4-4---4---------------------5h7----|
E|---------------------7-7---7---5-5-5h7--------|
And I'd stand there
Like a soldier
With my foot upon his chest.

e|----------------------------------------------|
B|----------------------------------------------|
G|----------------------------------------------|
D|-----7---7-----7---7-----7---7----------------|
A|-5-5---5---4-4---4---------------------5h7----|
E|---------------------7-7---7---5-5-5h7--------|
With my grin spread
And my arms out
In my bloodstained Sunday's best,

[Pre Chorus]
e|----------------------------|
B|----------------------------|
G|------------~let ring~------|
D|-7-7---7-7---7-----------7--|
A|-5-5---4-4---x-----------x--|
E|-------------7-----------7--|
And you'd hold me
I'd remind you
Who you are...
Under their shell..

[Chorus]
e|--------------------------------------------------------------------------|
B|--------------------------------------------------------------------------|
G|----------------------------------7-7-------------------------------------|
D|-7-7-7-7-4-4-4-4-2-2-2-2-2-2-2-2--7-7--4-4-2-2-2-2-2-2-2-2-2-2-2-2-2-2-2-2|
A|-7-7-7-7-4-4-4-4-2-2-2-2-2-2-2-2--5-5--4-4-2-2-2-2-2-2-2-2-2-2-2-2-2-2-2-2|
E|-5-5-5-5-2-2-2-2-0-0-0-0-0-0-0-0-------2-2-0-0-0-0-0-0-0-0-0-0-0-0-0-0-0-0|
I'd walk through hell for you.
Let it burn right through my shoes.
These soles are useless without you.

e|--------------------------------------------------------------------------|
B|--------------------------------------------------------------------------|
G|----------------------------------7-7-------------------------------------|
D|-7-7-7-7-4-4-4-4-2-2-2-2-2-2-2-2--7-7--4-4-2-2-2-2-2-2-2-2-2-2-2-2-2-2-2-2|
A|-7-7-7-7-4-4-4-4-2-2-2-2-2-2-2-2--5-5--4-4-2-2-2-2-2-2-2-2-2-2-2-2-2-2-2-2|
E|-5-5-5-5-2-2-2-2-0-0-0-0-0-0-0-0-------2-2-0-0-0-0-0-0-0-0-0-0-0-0-0-0-0-0|
Through hell for you
Let the torturing ensue.
My soul is useless without you

[Riff]
(guitar 1)
e|-----------------------------------|}
B|-2h3s5-----------------------------|}
G|-------4s6-4s6s4-2-------2---------|}X2
D|-------------------4p2-4---------2-|}
A|---------------------------0h2h4---|}
E|-----------------------------------|}

(guitar 2)
e|----------------------------------------------|}
B|----------------------------------------------|}
G|----------------------------------------------|}
D|-----7---7-----7---7-----7---7----------------|}
A|-5-5---5---4-4---4---------------------5h7----|}
E|---------------------7-7---7---5-5-5h7--------|}

[Verse 2]
e|----------------------------------------------|
B|----------------------------------------------|
G|----------------------------------------------|
D|-----7---7-----7---7-----7---7----------------|
A|-5-5---5---4-4---4---------------------5h7----|
E|---------------------7-7---7---5-5-5h7--------|
And if they sent a whirlwind,
I'd hug it like a harmless little tree.

e|----------------------------------------------|
B|----------------------------------------------|
G|----------------------------------------------|
D|-----7---7-----7---7-----7---7----------------|
A|-5-5---5---4-4---4---------------------5h7----|
E|---------------------7-7---7---5-5-5h7--------|
Or an earthquake,
I'd calm it,
And I'd bring you back to me,

e|--------------------------|
B|--------------------------|
G|------------~let ring~----|
D|-7-7---7-7---7------------|
A|-5-5---4-4---x------------|
E|-------------7------------|
And I'd hold you
In my weak arms like a first born.

[Chorus]
e|--------------------------------------------------------------------------|
B|--------------------------------------------------------------------------|
G|----------------------------------7-7-------------------------------------|
D|-7-7-7-7-4-4-4-4-2-2-2-2-2-2-2-2--7-7--4-4-2-2-2-2-2-2-2-2-2-2-2-2-2-2-2-2|
A|-7-7-7-7-4-4-4-4-2-2-2-2-2-2-2-2--5-5--4-4-2-2-2-2-2-2-2-2-2-2-2-2-2-2-2-2|
E|-5-5-5-5-2-2-2-2-0-0-0-0-0-0-0-0-------2-2-0-0-0-0-0-0-0-0-0-0-0-0-0-0-0-0|
I'd walk through hell for you.
Let it burn right through my shoes.
These soles are useless without you.

e|--------------------------------------------------------------------------|
B|--------------------------------------------------------------------------|
G|----------------------------------7-7-------------------------------------|
D|-7-7-7-7-4-4-4-4-2-2-2-2-2-2-2-2--7-7--4-4-2-2-2-2-2-2-2-2-2-2-2-2-2-2-2-2|
A|-7-7-7-7-4-4-4-4-2-2-2-2-2-2-2-2--5-5--4-4-2-2-2-2-2-2-2-2-2-2-2-2-2-2-2-2|
E|-5-5-5-5-2-2-2-2-0-0-0-0-0-0-0-0-------2-2-0-0-0-0-0-0-0-0-0-0-0-0-0-0-0-0|
Through hell for you
Let the torturing ensue.
My soul is useless without...

[Outro Chorus]


e|--------------------------------------------------------------------------|
B|--------------------------------------------------------------------------|
G|----------------------------------7-7-------------------------------------|
D|-7-7-7-7-4-4-4-4-2-2-2-2-2-2-2-2--7-7--4-4-2-2-2-2-2-2-2-2-2-2-2-2-2-2-2-2|
A|-7-7-7-7-4-4-4-4-2-2-2-2-2-2-2-2--5-5--4-4-2-2-2-2-2-2-2-2-2-2-2-2-2-2-2-2|
E|-5-5-5-5-2-2-2-2-0-0-0-0-0-0-0-0-------2-2-0-0-0-0-0-0-0-0-0-0-0-0-0-0-0-0|
YOOOUUUUU!!!!(through hell for you) without you

e|--------------------------------------------------------------------------|
B|--------------------------------------------------------------------------|
G|----------------------------------7-7-------------------------------------|
D|-7-7-7-7-4-4-4-4-2-2-2-2-2-2-2-2--7-7--4-4-2-2-2-2-2-2-2-2-2-2-2-2-2-2-2-2|
A|-7-7-7-7-4-4-4-4-2-2-2-2-2-2-2-2--5-5--4-4-2-2-2-2-2-2-2-2-2-2-2-2-2-2-2-2|
E|-5-5-5-5-2-2-2-2-0-0-0-0-0-0-0-0-------2-2-0-0-0-0-0-0-0-0-0-0-0-0-0-0-0-0|
Without you (through hell for you)

e|--------------------------------------------------------------------------|
B|--------------------------------------------------------------------------|
G|----------------------------------7-7-------------------------------------|
D|-7-7-7-7-4-4-4-4-2-2-2-2-2-2-2-2--7-7--4-4-2-2-2-2-2-2-2-2-2-2-2-2-2-2-2-2|
A|-7-7-7-7-4-4-4-4-2-2-2-2-2-2-2-2--5-5--4-4-2-2-2-2-2-2-2-2-2-2-2-2-2-2-2-2|
E|-5-5-5-5-2-2-2-2-0-0-0-0-0-0-0-0-------2-2-0-0-0-0-0-0-0-0-0-0-0-0-0-0-0-0|
Without you (through hell for you)

[Outro]
e|------------------------5-----|
B|------------------------5-----|
G|------------7-----------6-----|
D|--7---4-2---7--7--2-----7-----|
A|--7---4-2---5--7--2-----7-----|
E|--5---2-0------5--0-----5-----|
Now, I've walked through hell for you,
What's an adventurer to do
But rest these feet at home with you...


-KdWwasHere
Tap to rate this tab
 
# A B C D E F G H I J K L M N O P Q R S T U V W X Y Z