Song name
# A B C D E F G H I J K L M N O P Q R S T U V W X Y Z

Say Anything - Red Cat Yellow Cat tab

First Tab, hope you like it.
Its basically a simpler way of playing it.
Tabbed by: Nolan Eritano




Intro/ Main Verse

e|---------------------------------------------|
B|---------------------------------------------|
G|---------------------------------------------|
D|(2)-(4)--------------------------------------|  Each x8 
A|-3---5---------------------------------------|
E|-1---3---------------------------------------|

Until
..Theese are my friends..
*Chorus*

e|---------------------------------------------|
B|---------------------------------------------|
G|---------------------------------------------|
D|-2---x4 5--x4--------------------------------|   x2
A|-0------3----3--x4--5-x4---------------------|
E|-------------1------3------------------------|

Then repeat main verse and chorus throughout the rest of the song, you should be able 2 hear whats which.






Tap to rate this tab
# A B C D E F G H I J K L M N O P Q R S T U V W X Y Z