Song name
# A B C D E F G H I J K L M N O P Q R S T U V W X Y Z

Say Anything - I Am A Transylvanian tab

Artist: Say Anything
Song: I Am A Transylvanian
Album: Menora/Majora
Tabbed By: Terd Ferguson

This song has two guitar parts. I have tabbed it out for one guitar and tried to 
all the major instruments through out the song. Its not perfect but it is as close as i can get 
the original by myself.

Tuning: Standard (EADGBe)


Intro:
e|------------------------------------0----------|
B|------------------------------------x----------|
G|------------------------------------9----------|
D|---9/11---11--11--11---9--9---6-----6----------| X3
A|---7------11--11--11---9--9---7-----7----------|
E|---5-------0--------------------0--------------|


e|-----------------------------------|
B|------------------------4-5--------|
G|------------------------4-4--------|
D|-------2h4-------4-----------------|
A|--2h4-------4h6--------------------|
E|---------------------5-------------|


Verse: (Part 1)
e|-------------------------------|
B|-------------------------------|
G|-------------------------------|
D|---9/11---11--11--11---9-------|
A|---7------11--11--11---7-------|
E|---5-------0-----------0-------|
 "Bent over the......."
                                       >OPTIONAL BASS FILL<
e|---------------------------------|  e|-----------------|
B|---------------------------------|  B|-----------------|    1st
G|--------------------------9------|  G|-----------------|   verse
D|---9/11---11--11--11/9----9------|  D|-----------------|   only
A|---7------11--11--11------x------|  A|-----------------|
E|---5-------0--------------9------|  E|--4h5p4--2--0----|
 "Feel my eyes......."

e|----------------------------------4h5--4h5------|
B|------------------------------------------------|
G|------------------------------------------------|
D|---9/11---11--11--11---9--9---6-----------------|
A|---7------11--11--11---9--9---7-----------------|
E|---5-------0------------------------------------|
 "Legs that curve....."

e|-----------------------------------|
B|-----------------------------------|
G|------------------------6-4--------|
D|-------2h4-------4-----------------|
A|--2h4-------4h6--------------------|
E|---------------------5-------------|
 "Could run as......."

Verse: (Part 2)
e|-------------------------------------|
B|-------------------------------------|
G|-------------------------------------|
A|---6----9----6-----9-----6-----9-----|
D|---x----9----x-----9-----x-----9-----|
A|---7----7----7-----x-----7-----7-----|
E|---5---------5-----9-----5-----------|
 "My lazy tongue....."

e|--------------------------------|
B|--------------------------------|
G|--------------------------------|
D|-------2h4-------4--------------| X2
A|--2h4-------4h6-----------------|
E|---------------------5----------|
 "But you've already......"

Chorus:
e|-------------------------------------------------------|
B|-------------------------------------------------------|
G|---------------9-----9--------9--------------9--8--9---|
D|---9-----7-----9-----9--9-----7-----6--7-----9--9--9---|
A|---9-----7-----x-----7--9-----9-----7--7-----x--x--x---|
E|---7-----5-----9--------7-----------5--5-----9--9--9---|
 "The path into this heart........"

e|----------------------------------------------------------|
B|----------------------------------------------------------|
G|---------------9-----9--------9--------------9--------6---|
D|---9-----7-----9-----9--9-----7-----6--7-----7-----6--7---|
A|---9-----7-----x-----7--9-----9-----7--7-----9-----7--7---|
E|---7-----5-----9--------7-----------5--5-----------5--5---|
 "The Path into this heart........"

Goes back to verse (Part 2) after Chorus.


Bridge:
e|--------------------------------|
B|--------------------------------|
G|--------------------------------|
D|------9----9-----9----9/11\9----| X2
A|---------7----------7-----------|
E|---9----------5-----------------|
 "Don't go getting........"
                                   END ON
e|---------------------|         e|---0---|
B|---------------------|         B|-------|
G|---9---9-------9-----|         G|---9---|
D|---9---9---7---9-----| X4      D|---9---|
A|---x---7---7---7-----|         A|---x---|
E|---9-------5---------|         E|---9---|
 "Don't go (oh)......."


This is a ruff version of this song. Feel free to add on to this or use this as a 
block for other versions.
Tap to rate this tab
 
# A B C D E F G H I J K L M N O P Q R S T U V W X Y Z