Song name
# A B C D E F G H I J K L M N O P Q R S T U V W X Y Z

Say Anything - Wow I Can Get Sexual Too Acoustic tab

Help us improve GuitareTab! Take a short survey!
WOW I CAN GET SEXUAL TOO (ACOUSTIC)-SAY ANYTHING

VERSE:
|-0--0--|
|-10-10-|
|-9--9--|
|-10-10-|
|-10-8--|
|-------|

CHORUS:
|--------------------------------3-|
|---5---5---5---5---5---5---5---3--|
|--5-5-5-5-5-5-5-5-5-5-5-5-5-5-5---|
|-7---5---3-------3-------3---5----|
|-------------3-------3------------|
|----------------------------------|

|--------------------------------|
|---5---5---5---5---5---5---5----|
|--5-5-5-5-5-5-5-5-5-5-5-5-5-5-5-|
|-7---5---3-------3---5----------|
|-------------3-----------3---3--|
|--------------------------------|

BRIDGE:
|-------------------------------------------|
|---------13--12----------------------------|
|-12--12----------14-12--12--14-12--14-12---|
|---14--14--14--14-----14--14-----14-----14-|
|-------------------------------------------|
|-------------------------------------------|
Related for Wow I Can Get Sexual Too Acoustic tab