Song name
# A B C D E F G H I J K L M N O P Q R S T U V W X Y Z

Say Anything - Chia-like I Shall Grow tab

Say Anything - Chia-Like, I Shall Grow
taken from PlaySA.net
Jeff (guitarist) has an instructional video of how to play it on there.



Intro
d|-------------------------------------------|
A|-------------------------------------------|
G|-------------------------------------------|
D|---4-4-------7---4---7---4---7---7/9-------|
A|--------5----------------------------------|
E|-3---------3---3---3---3---3---3-----------|

d|-------------------------------------------|
A|-------------------------------------------|
G|-------------------------------------------|
D|---4-4-------7---4---7---4---7---4---------|
A|--------5---------------------------5------|
E|-3---------3---3---3---3---3---3-----------|

d|-0-0-0-0-0-0-0-0--0-0-0-0-0-0-0-0------------|
A|-0-0-0-0-0-0-0-0--0-0-0-0-0-0-0-0------------|
G|-0-0-0-0-0-0-0-0--0-0-0-0-0-0-0-0------------|
D|-4-4-4-4-4-4-4-4--4-4-4-4-4-4-4-4--5/4/2/0---|
A|-5-5-5-5-5-5-5-5--5-5-5-5-5-5-5-5------------|
E|-3-3-3-3-3-3-3-3--0-0-0-0-0-0-0-0------------|

d|-0-0-0-0-0-0-0-0--0-0-0-0-0-0-0-0-----------|
A|-0-0-0-0-0-0-0-0--0-0-0-0-0-0-0-0-----------|
G|-0-0-0-0-0-0-0-0--0-0-0-0-0-0-0-0-----------|
D|-4-4-4-4-4-4-4-4--4-4-4-4-4-4-4-4-----------|
A|-5-5-5-5-5-5-5-5--5-5-5-5-5-5-5-5--5/7/9/7--|
E|-3-3-3-3-3-3-3-3--0-0-0-0-0-0-0-0-----------|

Verse
d|---------------------------------------|
A|---------------------------------------|
G|-9-9-9/7----------7-7-7--4-------------|
D|-9-9-9/7-7/9-9-9--7-7-7--4--7-5-2-2----|
A|-7-7-7/5-7/9-9-9--5-5-5--2--7-5-2-2----|
E|---------5/7-7-7------------5-3-0-0----|

					  v-- natural harmonic
d|----------------------------------------------|
A|----------------------------------------------|
G|-9-9-9/7------------7-7-7-4-7-9-9-9-----------|
D|-9-9-9/7-7/9-9-7-9--7-7-7-4-7-9-9-9----[7]----|
A|-7-7-7/5-7/9-9-7-9--5-5-5-2-5-7-7-7----[7]----|
E|---------5/7-7-5-7---------------------[7]----|

Pre-Chorus
d|--0---0----------------------------------|
A|--0---0----------------------------------|
G|--0---0----------------------------------|
D|--4---4--5/4/2/0-------------------------|
A|--5---5----------------------------------|
E|--3---0----------------------------------|

d|------------------------------------------------------x-x-x-------|
A|------------------------------------------------------x-x-x-------|
G|------------------------------------------------------x-x-x-------|
D|---4-4---------7---4---7---4---7---7/9--4-----4---4---x-x-x--[7]--|
A|--------5---------------------------------5-----5---5-x-x-x--[7]--|
E|-3---------3---3---3---3---3---3------------0---------x-x-x--[7]--|

Chorus
d|-0-0-0-0-0-0-0-0---0-0-0-0-0-0-0-0------------|
A|-0-0-0-0-0-0-0-0---0-0-0-0-0-0-0-0------------|
G|-0-0-0-0-0-0-0-0---0-0-0-0-0-0-0-0------------|
D|-4-4-4-4-4-4-4-4---4-4-4-4-4-4-4-4--5/4/2/0---|
A|-5-5-5-5-5-5-5-5---5-5-5-5-5-5-5-5------------|
E|-3-3-3-3-3-3-3-3---0-0-0-0-0-0-0-0------------|

d|-0-0-0-0-0-0-0-0---0-0-0-0-0-0-0-0------------|
A|-0-0-0-0-0-0-0-0---0-0-0-0-0-0-0-0------------|
G|-0-0-0-0-0-0-0-0---0-0-0-0-0-0-0-0------------|
D|-4-4-4-4-4-4-4-4---4-4-4-4-4-4-4-4--5/7/9/7---|
A|-5-5-5-5-5-5-5-5---5-5-5-5-5-5-5-5------------|
E|-3-3-3-3-3-3-3-3---0-0-0-0-0-0-0-0------------|

2nd Verse
d|---------------------------------------|
A|---------------------------------------|
G|-9-9-9/7----------7-7-7--4-------------|
D|-9-9-9/7-7/9-9-9--7-7-7--4--7-5-2-2----|
A|-7-7-7/5-7/9-9-9--5-5-5--2--7-5-2-2----|
E|---------5/7-7-7------------5-3-0-0----|

d|-------------------------------------|
A|-------------------------------------|
G|-9-9-9/7------------7-7-7-4-7-9-9-9--|
D|-9-9-9/7-7/9-9-7-9--7-7-7-4-7-9-9-9--|
A|-7-7-7/5-7/9-9-7-9--5-5-5-2-5-7-7-7--|
E|---------5/7-7-5-7-------------------|

d|--------------------------------------------------------------------|
A|--------------------------------------------------------------------|
G|-9-9-9-9-9-9-7-------------------7-7-7-7-7-7-4-7-9-9/12/9/12/9/12---|
D|-9-9-9-9-9-9-7-7-9/12/9/12/9/12--7-7-7-7-7-7-4-7-9-9/12/9/12/9/12---|
A|-7-7-7-7-7-7-5-7-9/12/9/12/9/12--5-5-5-5-5-5-2-5-7-7/10/7/10/7/10---|
E|---------------5-7/10/7/10/7/10-------------------------------------|

d|------------------------------------------------------------------|
A|------------------------------------------------------------------|
G|-9-9-9-9-9-9-7-------------------7-7-7-7-7-7-4-7-9-9-9-9----------|
D|-9-9-9-9-9-9-7-7-9/12/9/12/9/12--7-7-7-7-7-7-4-7-9-9-9-9--7-------|
A|-7-7-7-7-7-7-5-7-9/12/9/12/9/12--5-5-5-5-5-5-2-5-7-7-7-7--7-------|
E|---------------5-7/10/7/10/7/10---------------------------5-------|

Chorus
d|-0-0-0-0-0-0-0-0---0-0-0-0-0-0-0-0------------|
A|-0-0-0-0-0-0-0-0---0-0-0-0-0-0-0-0------------|
G|-0-0-0-0-0-0-0-0---0-0-0-0-0-0-0-0------------|
D|-4-4-4-4-4-4-4-4---4-4-4-4-4-4-4-4--5/4/2/0---|
A|-5-5-5-5-5-5-5-5---5-5-5-5-5-5-5-5------------|
E|-3-3-3-3-3-3-3-3---0-0-0-0-0-0-0-0------------|

d|-0-0-0-0-0-0-0-0---0-0-0-0-0-0-0-0------------|
A|-0-0-0-0-0-0-0-0---0-0-0-0-0-0-0-0------------|
G|-0-0-0-0-0-0-0-0---0-0-0-0-0-0-0-0------------|
D|-4-4-4-4-4-4-4-4---4-4-4-4-4-4-4-4--5/7/9/7---|
A|-5-5-5-5-5-5-5-5---5-5-5-5-5-5-5-5------------|
E|-3-3-3-3-3-3-3-3---0-0-0-0-0-0-0-0------------|

Bridge
d|---------------------------------------------------|
A|---------------------------------------------------|
G|------8----8-----8-----8-----6-----6-----6-----6---|
D|---------------------------------------------------|
A|---7-----7-----7-----7-----7-----7-----7-----7-----|
E|-0-----0-----0-----0-----0-----0-----0-----0-------|

d|-----------------------------------------------------|
A|--------------------------------------------------x2-|
G|------8----8-----8-----8/9---6-----6-----6-----6-----|
D|-----------------------------------------------------|
A|---7-----7-----7-----7-----7-----7-----7-----7-------|
E|-0-----0-----0-----0-----0-----0-----0-----0---------|

d|----------------------------------------------------------------------xxx--|
A|----------------------------------------------------------------------xxx--|
G|-----8-----8-----8-----8-----3-----3-----3-----3/4-----6-----6-----6--xxx--|
D|----------------------------------------------------------------------xxx--|
A|---7-----7-----7-----7-----4-----4-----4-----4-------7-----7-----7----xxx--|
E|-9-----9-----9-----9-----2-----2-----2-----2-------5-----5-----5------xxx--|

d|-----------------------------------------------------|
A|-----------------------------------------------------|
G|------8----8-----8-----8/9----6----6-----6-----6-----|
D|-----------------------------------------------------|
A|---7-----7-----7-----7-----7-----7-----7-----7-------|
E|-0-----0-----0-----0-----0-----0-----0-----0---------|

d|------------------------------------------------------|
A|------------------------------------------------------|
G|-8-8-8-8-8--6-6-6-6-6--8-8-8-8-8--6-6-6-6-6-6-6-6-----|
D|------------------------------------------------------|
A|-7-7-7-7-7--7-7-7-7-7--7-7-7-7-7--7-7-7-7-7-7-7-7-----|
E|-0-0-0-0-0--0-0-0-0-0--0-0-0-0-0--0-0-0-0-0-0-0-0-----|

d|------------------------------------------------------------|
A|------------------------------------------------------------|
G|--------------------------3-3-3-3-3-3-3-3--6-6-6-6-6-6-6-6--|
D|-11-11-11-11-11-11-11-11------------------------------------|
A|-11-11-11-11-11-11-11-11--4-4-4-4-4-4-4-4--7-7-7-7-7-7-7-7--|
E|-9--9--9--9--9--9--9--9---2-2-2-2-2-2-2-2--5-5-5-5-5-5-5-5--|

d|-------------------------------------------------|
A|-------------------------------------------------|
G|-6-6-6--8-8-8--9-9-9--11-11-11-11-11-11-11-11----|
D|-------------------------------------------------|
A|-4-4-4--6-6-6--7-7-7--9--9--9--9--9--9--9--9-----|
E|-------------------------------------------------|

Chorus
d|-0-0-0-0-0-0-0-0---0-0-0-0-0-0-0-0------------|
A|-0-0-0-0-0-0-0-0---0-0-0-0-0-0-0-0------------|
G|-0-0-0-0-0-0-0-0---0-0-0-0-0-0-0-0------------|
D|-4-4-4-4-4-4-4-4---4-4-4-4-4-4-4-4--5/4/2/0---|
A|-5-5-5-5-5-5-5-5---5-5-5-5-5-5-5-5------------|
E|-3-3-3-3-3-3-3-3---0-0-0-0-0-0-0-0------------|

d|-0-0-0-0-0-0-0-0---0-0-0-0-0-0-0-0---|
A|-0-0-0-0-0-0-0-0---0-0-0-0-0-0-0-0---|
G|-0-0-0-0-0-0-0-0---0-0-0-0-0-0-0-0---|
D|-4-4-4-4-4-4-4-4---4-4-4-4-4-4-4-4---|
A|-5-5-5-5-5-5-5-5---5-5-5-5-5-5-5-5---|
E|-3-3-3-3-3-3-3-3---0-0-0-0-0-0-0-0---|

d|--------------------------------------------------------|
A|-------7-------------7-------------7-7-7-7--------------|
G|-------7-------------7--12-11-9-7-----------12-11-9-7---|
D|---------------5-5-5---------------5-5-5-5--------------|
A|-5-5-5---7/9\7----------10--9-7-5--7-7-7-7--10-9--7-5---|
E|--------------------------------------------------------|

d|--------------------------------------------------------|
A|-------7-------------7-------------7-7-7-7--------------|
G|-------7-------------7--12-11-9-7-----------12-11-9-7---|
D|---------------5-5-5---------------5-5-5-5--------------|
A|-5-5-5---7/9\7----------10--9-7-5--7-7-7-7--10-9--7-5---|
E|--------------------------------------------------------|

Play the first part and then use a harmonic, then repeat first, use next... etc
d|---------------|-----|-----|-----|
A|---------------|-----|-----|-----|
G|---------------|-[5]-|-----|-[5]-|
D|---44-----4----|-----|-----|-----|
A|------5-----5--|-----|-[5]-|-----|
E|-3------3------|-----|-----|-----|

End
d|---------|-----|
A|---------|-----|
G|---------|-[5]-|
D|---44----|-[5]-|
A|------5--|-[5]-|
E|-3-------|-----|

Tap to rate this tab
# A B C D E F G H I J K L M N O P Q R S T U V W X Y Z