Song name
# A B C D E F G H I J K L M N O P Q R S T U V W X Y Z

Say Anything - Surgically Removing The Tracking Device tab

Intro/verse

e--------------------------|
B--------------------------|
G--------------------------|
D--------------------------|
A---------0-02----0--0-----|
E----2--2--2--2--2--2-4----|

Chorus

e------------------------------------------------|
B------------------------------------------------|
G----777777777777-9999--77-77-77-77--9999--------|
D----777777777777-xxxx--77-77-77-77--xxxx--------|
A----555555555555-7777--55-55-55-55--7777--------|
E------------------------------------------------|

Bridge

e--------------5-------------------------------------|
B----------------------------------------------------|
G----5-55555------2222h4-----------------------------|
D------------4-----------4--2--2h4--4h6--6h7--7/9----|
A-----------------------------4----4----4----4-------|
E----------------------------------------------------|

e-----------8------------8--8--8---------------------|
B-----------7----x2------7--7--7---------------------|
G---76-4---8-------------8--8--8---------------------|
D-----7----------------(second time)-----------------|
A----------------------------------------------------|
E----------------------------------------------------|

Bridge pt. 2 (listen for timing)

e------------5---------------------------------------|
B------------7-----------x4--------------------------|
G------------8---------------------------------------|
D----------------------------------------------------|
A----------------------------------------------------|
E----------------------------------------------------|

Outro

e-------------------------------------------------------|
B-------------------------------------------------------|
G---------------777777---------666666-777777------------|
D----------76---777777-222222-777777-777777-------------|
A-------------7-555555-222222-444444-555555-------------|
E-----------------------000000--------------------------|
Tap to rate this tab
# A B C D E F G H I J K L M N O P Q R S T U V W X Y Z