Song name
# A B C D E F G H I J K L M N O P Q R S T U V W X Y Z

Say Anything - Retarded In Love tab

Retarded In Love By Say Anything

Tuning: Standard

Verse:

e|--------3-------3------------------------------------|
B|--------3-------3------------------------------------|
G|--------4-------4------------------------------------|
D|--------5-------5----------4---4/5-4-2-4-------------|
A|--------5-------5----0-2----2------------------------|
E|---3---------3---------------------------------------|

e|--------0-----0--------------------------------------|
B|--------0-----0-----------------0--------------------|
G|--------0-----0-------------0-----0---0--------------|
D|--------2-----2-----------2---2-----2----------------|
A|-----2--2--2--2-------0-3----------------------------|
E|-----0-----0-----------------------------------------|

e|-----------------------------------------------------|
B|-----------------------------------------------------|
G|---4---------4---------------------------------------|
D|---4--xP.M---4---------------------------------------|
A|---2---------2---------------------------------------|
E|-----------------------------------------------------|

Chorus:

e|----3------------------------------------------------|
B|----0------0-----------------------------------------|
G|----0------0-----------------------------------------|
D|----0------2-----------------------------------------|
A|----2------2-----------------------------------------|
E|----3------0-----------------------------------------|


Bridge:

e|-----------------------------------------------------|
B|-----------------------------------------------------|
G|-----------------------------------------------------|
D|-----------------------------------------------------|
A|---7--55--33------33-----5555-3-0-3-0-5/7------------|
E|--------------33------33-----------------------------|

e|-----------------------------------------------------|
B|-----------------------------------------------------|
G|-----------------------------------------------------|
D|-----------------------------------------------------|
A|---7--55--33------33--55---3/-55-77-55-3-5-----------|
E|--------------33-------------------------------------|

e|-----------------------------------------------------|
B|-----------------------------------------------------|
G|---9--77--55------55-------77-44-5--66-77-99---------|
D|---9--77--55--55--55--55---77-44-5--66-77-99---------|
A|---7--55--33--55--33--55---55-22-3--44-55-77---------|
E|--------------33------33-----------------------------|

e|-----------------------------------------------------|
B|-----------------------------------------------------|
G|---9--77--55------55-------77-55---------------------|
D|---9--77--55--55--55--55---77-55-55------------------|
A|---7--55--33--55--33--55---55-33-55------------------|
E|--------------33------33---------33------------------|

Outro:

e|-----------------------------------------------------|
B|-----------------------------------------------------|
G|----77--77--55-44---77-77-77-------------------------|
D|----77--55--55-55---77-55-77-------------------------|
A|----55--33----------55-33----------------------------|
E|------------55-55---------77-------------------------|

Tap to rate this tab
# A B C D E F G H I J K L M N O P Q R S T U V W X Y Z