Guitaretab - guitar tabs
Song name
# A B C D E F G H I J K L M N O P Q R S T U V W X Y Z

Say Anything - Goodbye Young Tutor Youve Now Outgrown Me tab

-----------------------------------------------------------------------------
           Goodbye Young Tutor, You've Outgrown Me - Say Anything
-----------------------------------------------------------------------------
Tabbed By: Me
Email: --

Tuning: Standard


INTRO
e|--------------------------------------------------------------------------|
B|-1------------3-----5---------1-------3--3--3p1-----1-------3-----5-------|
G|------0-------------------------0---------------------0-------------------|
D|--------2---------------------------2-------------------------------------|
A|-3----------3-----3-----3-0-----------0--0--0---3---------3-----3-----3-0-|
E|--------------------------------------------------------------------------|
                                      "Black days..."
e|--------------------------------------------------------------------------|
B|-1-------3--3--3p1-----1-------3-----5---------1-------3--3--3p1-----1----|
G|---0---------------------0-----------------------0---------------------0--|
D|-------2---------------------------------------------2--------------------|
A|---------0--0--0---3---------3-----3-----3-0-----------0--0--0---3--------|
E|--------------------------------------------------------------------------|

e|-------------------------------------------------------------------------|
B|---3-----5---------1-------3--3--3p1--------------------1--1--1--1--1--1-|
G|---------------------0----------------0--0--0--0--0--0-------------------|
D|-------------------------2-----------------------------------------------|
A|-3-----3-----3-0-----------0--0--0----3--3--3--2--2--2--1--1--1--1--1--1-|
E|-------------------------------------------------------------------------|

e|----------------------1----------------------------------------------0-|
B|----------------------1----1--------1-----1--------1--------1----------|
G|-----2-------2-----2--1--------1-------1-----0--------0--------0-------|
D|-------3--------3-----3----------3--------------2--------0--------2----|
A|-----------3----------3-------------------3--------2--------0----------|
E|-1--------------------1--1-------------------------------------------3-|

e|-------------------------------------------------------------------------|
B|--------------------------------------0------1-----------3---3/5---0-----|
G|-0-----------5------5-----5---2------------------0-----------------------|
D|----0--------2------2-----2------------------------2---------------------|
A|-------5---5-----5-----5---------------------3---------3-3---------------|
E|------------------------------3-------3----------------------------3-----|
                                  "Your breath..."
e|----------------------------------------------------------------------|
B|---------------1-----------3-----5---------1-------3--3--3p1-----1----|
G|----0----0---0-----0-------------------------0---------------------0--|
D|---------------------2---------------------------2--------------------|
A|------0----2---3---------3-----3-----3-0-----------0--0--0---3--------|
E|-3--------------------------------------------------------------------|

e|-------------------------------------------------------------------------|
B|---3-----5---------1-------3--3--3p1--------------------1--1--1--1--1--1-|
G|---------------------0----------------0--0--0--0--0--0-------------------|
D|-------------------------2-----------------------------------------------|
A|-3-----3-----3-0-----------0--0--0----3--3--3--2--2--2--1--1--1--1--1--1-|
E|-------------------------------------------------------------------------|
[ Tab from: http://www.guitaretab.com/s/say-anything/98463.html ]
e|----------------------1-----------------------------------------------0-|
B|----------------------1-----1--------1-----1--------1--------1----------|
G|-----2-------2-----2--1---------1-------1-----0--------0--------0-------|
D|-------3--------3-----3-----------3--------------2--------0--------2----|
A|-----------3----------3--------------------3--------2--------0----------|
E|-1--------------------1---1-------------------------------------------3-|

e|---------------------------------------------|
B|-------------------------------------0-------|
G|-0-----------5------5-----5--2---------------|
D|----0--------2------2-----2------------------|
A|-------5---5-----5-----5---------------------|
E|-----------------------------3-------3-------|

e|------------------------------------------------| 
B|-------1--1--------------------1--0-------------|
G|-------0--0--------0-----------0--0--------0----|
D|-2--2--------2--2--2--2--2--2--------2--2--2--2-|
A|-3--3--------3--3-----3--3--3--------3--3-----3-|
E|-1--1--------1--1--------1--1--------1--1-------|

e|------------------------------------------------|
B|-------1--0--------------------1--0-------------|
G|-------0--0--------0-----------0--0--------0----|
D|-2--2--------2--2--2--2--2--2--------2--2--2--2-|
A|-0--0--------0--0--------0--0--------0--0-------|
E|------------------------------------------------| Repeat as needed until:
   "Max, oh..."
e|------------------------------------------------|              e|---0---|
B|-------0------Repeat X4-------3------Repeat X4--| Repeat Twice B|---3---|
G|-----------0----------------------0-------------| End on:      G|---0---|
D|------------------------------------------------|              D|---2---|
A|--0--0-------------------3--3-------------------|              A|---3---|
E|------------------------------------------------|              E|---x---|

e|------------------------------------------------| 
B|-------1--1--------------------1--0-------------|
G|-------0--0--------0-----------0--0--------0----|
D|-2--2--------2--2--2--2--2--2--------2--2--2--2-|
A|-3--3--------3--3-----3--3--3--------3--3-----3-|
E|-1--1--------1--1--------1--1--------1--1-------|

e|------------------------------------------------|
B|-------1--0--------------------1--0-------------|
G|-------0--0--------0-----------0--0--------0----|
D|-2--2--------2--2--2--2--2--2--------2--2--2--2-|
A|-0--0--------0--0--------0--0--------0--0-------|
E|------------------------------------------------| Repeat twice, then:

e|--------------------------------------------------------------------------|
B|-1------------3-----5---------1-------3--3--3p1-----1-------3-----5-------|
G|------0-------------------------0---------------------0-------------------|
D|--------2---------------------------2-------------------------------------|
A|-3----------3-----3-----3-0-----------0--0--0---3---------3-----3-----3-0-|
E|--------------------------------------------------------------------------|

e|--------------------------------------------------------------------------|
B|-1-------3--3--3p1-----1-------3-----5---------1-------3--3--3p1-----1----|
G|---0---------------------0-----------------------0---------------------0--|
D|-------2---------------------------------------------2--------------------|
A|---------0--0--0---3---------3-----3-----3-0-----------0--0--0---3--------|
E|--------------------------------------------------------------------------|

e|--------------------------------------0--|
B|---3-----5---------1-------3--3--3p1--1--|
G|---------------------0----------------0--|
D|-------------------------2------------2--|
A|-3-----3-----3-0-----------0--0--0----3--|
E|--------------------------------------x--|
Related for Goodbye Young Tutor Youve Now Outgrown Me tab