Song name
# A B C D E F G H I J K L M N O P Q R S T U V W X Y Z

Say Anything - That Is Why You Should Rock My World Acoustic tab

-------------------------------------------------------------------------------
			     THAT IS WHY - Say Anything
-------------------------------------------------------------------------------
Tabbed by:Amthony Monterulo
Email:Antmonte24@aol.com

I tabbed this out from Max's acoustic version with the different lyrics
Tuning:Eb Ab Db Gb Bb Eb (half step down)

Verse (listen for strumming)
eb|---------------------------------------------------------------------------|
Bb|---------------------------------------------------------------------------|
Gb|----5-----5----------------------------------------------------------------|
Db|----5--5--3---3--5--7--8--3------------------------------------------------|
Ab|----3--3--3---3--5--5--8--3------------------------------------------------|
Eb|-------3------1--3--5--6--1------------------------------------------------|

chorus
eb|---------------------------------------------------------------------------|
Bb|---------------------------------------------------------------------------|
Gb|---5--------5--6-----------5-----------------------------------------------|
Db|---5--5--6--4--5--9--3--5--5-----------------------------------------------|
Ab|---3--4--5--5--6--8--3--5--3-----------------------------------------------|
Eb|------5--6--------9--1--3--------------------------------------------------|




| /  slide up
| \  slide down
| h  hammer-on
| p  pull-off
| ~  vibrato
| +  harmonic
| x  Mute note
===============================================================================
Tap to rate this tab
 
# A B C D E F G H I J K L M N O P Q R S T U V W X Y Z