Song name
# A B C D E F G H I J K L M N O P Q R S T U V W X Y Z

Say Anything - Baby Girl Im A Blur tab

Tabbed by:meg127
Email:crosscountrygirl127@verizon.net

Tuning:standard

verse

e|--------------------------|
B|--------------------------|
G|--------------------------|x6
D|--------------------------|
A|--------------------------|
E|--6666--9999--4444--4444--|

pre chorus

e|---------------------------|
B|---------------------------|
G|---------------------------|x4
D|---------------------------|
A|---------------------------|
E|--6666--99-11--44444444----|

chorus

e|---------------------------|
B|---------------------------|
G|---------------------------|x4
D|--8888--1111--44444444-----|
A|--8888--1111--44444444-----|
E|--6666--9999--66666666-----|

post chorus

e|-------------------------|
B|-------------------------|
G|--8888--1111-------------|x4
D|--8888--1111--44444444---|
A|--6666--9999--44444444---|
E|--------------66666666---|

[verse]
[chorus]
[post chorus]


bridge

e|------------------------------------------------------------------|
B|-----------------------------------------------6h8----------------|
G|------------------------------------------------------------------|
D|----6---6---4/3---6---6---------6---6------------------8----------|
A|-------------------------4\6-----------6-8----------6-------------|
E|--6---6---------6---6---------6---6-----------------------6/7-----|

this is the guitar tab for the keyboard solo

e|--------------------------------------------------------------------|
B|----------6-----------------6-----------------6------7-----6--------|
G|--------------------------------------------------------------------|
D|------8------8----------8------8----------8-----8-------8-----8-----|
A|--6----------------7------------------------------------------------|
E|-------------------------------------6------------------------------|

[post chorus]

solo

e|------------------------------------------------------------------|
B|-------------------------------------9999--6----------------------|
G|--6666--8888888888888--------6--8-------------6666\8888-----------|
D|-----------------------6--8---------------------------------------|
A|------------------------------------------------------------------|
E|------------------------------------------------------------------|

e|------------------------6666---9~-9/6-9/6-------------------------------|
B|-------------------------------------------------------------8686-------|
G|--66666666--88888888------------------------------------6\8-------------|
D|-------------------------------------------6666--8888----------------9--|
A|------------------------------------------------------------------------|
E|------------------------------------------------------------------------|

e|------------------------------------------------------------------------|
B|------------------------------------------------------------------------|
G|---------------------6\8------------------------------------------------|
D|-66666666--88888888---------------------------6\8-----------------------|
A|--------------------------66666666--88888888-------6---8---6\8-6\8------|
E|-------------------------------------------------------------------6\9--|


| /  slide up
| \  slide down
| h  hammer-on
| p  pull-off
| ~  vibrato
| +  harmonic
| x  Mute note
===============================================================================
Tap to rate this tab
 
# A B C D E F G H I J K L M N O P Q R S T U V W X Y Z