Song name
# A B C D E F G H I J K L M N O P Q R S T U V W X Y Z

Say Hi To Your Mom - Blizzard tab

Say Hi to your mom
Blizzard

Verse: this is that basics, I don't have to spoon feed you guys; repeat as nessicary
 ">" means play it quick and soft
-----------------------------------------------------------------|
-----------------------------------------------------------------|
-----------------------------------------------------------------|
-------4-----------4------------4-----------4-------------4------|
---2-----2-----2-----2-----2------2-----2----->2-----2------2----|
-4-->4-----4-4-->4-----4-2--->2-----2-2---2------2-0---0-----0-0-|...


----------------------------------------|
----------------------------------------|
----------------------------------------|
---4--------4----------4-----------4----|
-----2--------2----2-----2-----2-----2--|
-4------4-2------0---0-----0-0---0------|
"and we played twister..."

Then just turn your distortion on and layer these chords with the verse
-----------------------------------------------------|
-----------------------------------------------------|
-----------------------------------------------------|
-4-4-4-4--4-4-4-4--4-4-4-4---------------------------|
-2-2-2-2--2-2-2-4--2-2-2-2---------------------------|
-4-4-4-4--2-2-2-2--0-0-0-0---------------------------|

There you have it. It's pretty simple. Enjoy!
Tap to rate this tab
 
# A B C D E F G H I J K L M N O P Q R S T U V W X Y Z