Song name
# A B C D E F G H I J K L M N O P Q R S T U V W X Y Z

Say Hi To Your Mom - Laundry tab

-------------------------------------------------------------------------------
			     Laundry - Say Hi To Your Mom
-------------------------------------------------------------------------------
Tabbed by: max rankin
Email: mrguitar23@hotmail.com

i was messing around with the song i messed up on my other tab. this is the right way

Tuning: standard

e|-------------------------------------------------------------------|
B|-4--4--x--x--------------------------------------------------------|
G|-4--4--x--x--3--3--1--1--1--1--------------------------------------|
D|-4--4--x--x--4--4--2--2--2--2--------------------------------------|
A|-2--2--x--x--4--4--2--2--2--2--------------------------------------|
E|-------------2--2--0--0--0--0--------------------------------------|
Tap to rate this tab
# A B C D E F G H I J K L M N O P Q R S T U V W X Y Z