Guitaretab - guitar tabs
Song name
# A B C D E F G H I J K L M N O P Q R S T U V W X Y Z

Say Hi To Your Mom - Fritz tab

The Fritz - Say hi to Your Mom

ok this is like the easiest song ever so here it is transcribed for guitar.. probs sum mistakes
 but it shud b easy enough to work out yaself.

e|-------------------------------|
b|-------------------------------|
g|-------------------------------|     x4
d|-0----0-4-4---4-3---4----------|
a|-----------------------3-3---4-|
e|-------------------------------|

Then just continue playing this riff through the verse


Then theres something that sounds like this
[ Tab from: http://www.guitaretab.com/s/say-hi-to-your-mom/71763.html ]
e|-------------------------------|
b|-------------------------------|
g|-------------------------------|
d|----7--7--7------7-------------|
a|-------------5-----------------|
e|-------------------------------|


Then the original riff after "Don't anybody sneeze"


At "look out now" guitar 1 plays the original riff and guitar 2 plays something like this:

e|--------------------------|
b|--------------------------|
g|-----------------7--5---2-|
d|0--0--4--0---4------------|
a|--------------------------|
e|--------------------------|

pretty much to the end of the song


...and that's it
Related for Fritz tab
Advertisement will be closed in 10 seconds